Oops, an error
Loading. Please wait.

Techno Fan bass

version 1
version 1

Whole song

Interactive

4,408 views 9 this week
1 commentread comment
1 2 3 4 5
x 3
add to favorites
×
Save as Personal and add changes to this tab that will be seen only by you. Learn more ›
×
You can save this tab as Personal to edit and correct it or add notes. All changes will be seen only by you. Learn more »
launch autoscroll
font size
0
reset
guitar tuner
edit
Autoscroll
slow
fast
+/-
esc
set tempo
stop
Author
Difficulty
Artist: The Wombats
Song: Techno Fan

Tabbed By: Austin13x390 
E-mail: austin.hooper3@gmail.com

This is my own transcription of the bass line for this song.
It's not 100% perfect but it's almost there and sounds good to me.  
This is also my first tab so enjoy, comment and rate.

Tuning: Standard

Intro/Verse [0:09] (Originally on keyboard)
G|--11--14--11--14|--11--14--11--14|--12--14--12--14|--12--14--12--14|
D|12--12--12--12--|12--12--12--12--|12--12--12--12--|12--12--12--12--|
A|----------------|----------------|----------------|----------------|
E|----------------|----------------|----------------|----------------|

Verse [0:36]
G|----------------|----------------|----------------|----------------|
D|----------------|----------------|----------------|----------------|
A|5~--------------|----------------|----------------|----------------|
E|----------------|----------------|7~--------------|3~--------------|

G|----------------|----------------|----------------|----------------|
D|----------------|----------------|----------------|----------------|
A|5~--------------|----------------|7~--------------|----------------|
E|----------------|----------------|----------------|----------------|

G|----------------|----------------|
D|5~--------------|----------------|
A|----------------|----------------|
E|----------------|----------------|

Chorus [0:53]
G|--7---7---7---7-|--7---7---7---7-|----------------|----------------|
D|----------------|----------------|--5---5---5---5-|--5---5---5---5-|
A|5---5---5---5---|5---5---5---5---|----------------|----------------|
E|----------------|----------------|3---3---3---3---|3---3---3---3---|

G|----------------|----------------|----------------|----------------|
D|--9---9---9---9-|--7---7---7---7-|--5---5---5---5-|--5---5---5---5-|
A|----------------|----------------|----------------|----------------|
E|7---7---7---7---|5---5---5---5---|3---3---3---3---|3---3---3---3---|

G|--7---7---7---7-|--7---7---7---7-|----------------|----------------|
D|----------------|----------------|--5---5---5---5-|--5---5---5---5-|
A|5---5---5---5---|5---5---5---5---|----------------|----------------|
E|----------------|----------------|3---3---3---3---|3---3---3---3---|

G|----------------|----------------|----------------|----------------|
D|--9---9---9---9-|--7---7---7---7-|--5---5---5---5-|--5---5---------|
A|----------------|----------------|----------------|----------------|
E|7---7---7---7---|5---5---5---5---|3---3---3---3---|3---3---3-------|

Break [1:20]
G|----------------|----------------|----------------|----------------|
D|----------------|----------------|----------------|----------------|
A|5-5-5-5-5-5-5-5-|5-5-5-7---7---7-|----------------|----------------|
E|----------------|----------------|3-3-3-3-3-3-3-3-|3-3-3-3---030---|

G|----------------|----------------|----------------|----------------|
D|----------------|----------------|----------------|----------------|
A|5-5-5-5-5-5-5-5-|5-5-5-7---7---7-|----------------|----------------|
E|----------------|----------------|3-3-3-3-3-3-3-3-|3-3-3-0---0---0-|

Verse [1:34]
G|----------------|----------------|----------------|----------------|
D|----------------|----------------|----------------|------7---5---7-|
A|5~--------------|----------------|----------------|----------------|
E|----------------|----------------|3-3-3-0-3-3---0-|3-3-3-----------|

G|----------------|----------------|----------------|----------------|
D|----------------|------5-------5-|----------------|----------------|
A|5-5-5-3-5-5---3-|5-5-5-----7-----|----------------|----------------|
E|----------------|----------------|3-3-3-0-3-3---0-|3-3-3-3---------|

G|----------------|----------------|----------------|----------------|
D|----------------|------5-------5-|----------------|------7---5---7-|
A|5-5-5-3-5-5---3-|5-5-5-----7-----|----------------|----------------|
E|----------------|----------------|3-3-3-0-3-3---0-|3-3-3-----------|

G|----------------|----------------|----------------|----------------|
D|----------------|------5-------5-|----------------|----------------|
A|5-5-5-3-5-5---3-|5-5-5-----7-----|----------------|----------------|
E|----------------|----------------|0-0-0-0-0-0-0-0-|0-0-0-0-0-0-1-1-|

G|----------------|----------------|
D|----------------|----------------|
A|----------------|----------------|
E|3-3-3-3-3-3-3-3-|3-3-3-3-3-------|

Chorus [2:04]
G|----------------|----------------|----------------|----------------|
D|----------------|----------------|----------------|----------------|
A|5-5-5-5-5-5-5-5-|5-5-5-5-5-5-5-5-|----------------|----------------|
E|----------------|----------------|3-3-3-3-3-3-3-3-|3-3-3-3-3-3-3-3-|

G|----------------|----------------|----------------|----------------|
D|----------------|----------------|----------------|----------------|
A|2-2-2-2-2-2-2-2-|----------------|----------------|----------------|
E|----------------|5-5-5-5-5-5-5-5-|3-3-3-3-3-3-3-3-|3-3-3-3-3-3-3-3-|

G|----------------|----------------|----------------|----------------|
D|----------------|----------------|----------------|----------------|
A|5-5-5-5-5-5-5-5-|5-5-5-5-5-5-5-5-|----------------|----------------|
E|----------------|----------------|3-3-3-3-3-3-3-3-|3-3-3-3-3-3-3-3-|

G|----------------|----------------|----------------|----------------|
D|----------------|----------------|----------------|----------------|
A|2-2-2-2-2-2-2-2-|----------------|----------------|----------------|
E|----------------|5-5-5-5-5-5-5-5-|3-3-3-3-3-3-3-3-|3-3-3-3-3-3-3-3-|

Bridge [2:31]
G|----------------|
D|-------NO-------|
A|------BASS------|
E|----------------|

Bridge [2:45]
G|----------------|----------------|----------------|----------------|
D|----------------|----------------|----------------|----------------|
A|----------------|----------------|----------------|----------------|
E|0-0-0-0-0-0-0-0-|0-0-0-0-0-0-0-0-|3~--------------|----------------|

Chorus [2:55]
G|----------------|----------------|----------------|----------------|
D|----------------|----------------|----------------|----------------|
A|5-5-5-5-5-5-5-5-|5-5-5-5-5-5-5-5-|----------------|----------------|
E|----------------|----------------|3-3-3-3-3-3-3-3-|3-3-3-3-3-3-3-3-|

G|----------------|----------------|----------------|----------------|
D|----------------|----------------|----------------|----------------|
A|2-2-2-2-2-2-2-2-|----------------|----------------|----------------|
E|----------------|5-5-5-5-5-5-5-5-|3---3-3-3-3-3-3-|3-3-3-3-3-3-3-3-|

G|----------------|----------------|----------------|----------------|
D|----------------|----------------|----------------|----------------|
A|5-5-5-5-5-5-5-5-|5-5-5-5-5-5-5-5-|----------------|----------------|
E|----------------|----------------|3-3-3-3-3-3-3-3-|3-3-3-3-3-3-3-3-|

G|----------------|----------------|----------------|----------------|
D|----------------|----------------|----------------|----------------|
A|2-2-2-2-2-2-2-2-|----------------|10--101010--1010|10--1010101010/-|
E|----------------|5-5-5-5-5-5-5-5-|----------------|----------------|

Break [3:22]
G|----------------|----------------|----------------|----------------|
D|----------------|----------------|----------------|----------------|
A|5-5-5-5-5-5-5-5-|5-5-5-7---7---7-|----------------|----------------|
E|----------------|----------------|3-3-3-3-3-3-3-3-|3-3-3-3---030---|

G|----------------|----------------|----------------|----------------|
D|----------------|----------------|----------------|----------------|
A|5-5-5-5-5-5-5-5-|5-5-5-7---7---7-|----------------|----------------|
E|----------------|----------------|3-3-3-3-3-3-3-3-|3-3-3-0---0---0-|

Ending [3:36]
G|----------------|----------------|----------------|----------------|
D|----------------|----------------|----------------|----------------|
A|5~--------------|----------------|----------------|----------------|
E|----------------|----------------|3~--------------|----------------|

G|----------------|----------------|----------------|----------------|
D|----------------|----------------|----------------|----------------|
A|5~--------------|----------------|----------------|----------------|
E|----------------|----------------|3~--------------|----------------|

G|----------------|----------------|
D|----------------|----------------|
A|5~--------------|----------------|
E|----------------|----------------|

            
            
Suggest correction
Creating personal tab
Creating personal tab
You can edit any tab online and save it as your Personal.

You can edit, replace or remove any tab part or add personal notes – all changes will be seen only by you.

Personal tabs can be accessed anytime from any device, even offline.
Learn more »
Give kudos to tab author, rate the tab!
1 2 3 4 5
comments
print report bad tab
1 comment total.
0 reply
enm369 10 Jul 21, 2017 03:56 PM

This is my favorite Wombats song and you did amazing with it, thank you so much for posting this, much appreciated!

guest
You may want to rate the tab now too:
select rating
Wanna post a correction for this tab? Suggest correction