Oops, an error
Loading. Please wait.

Came Out Swinging bass

version 1
version 1

Whole song

Interactive

5,052 views 6 this week
1 commentread comment
1 2 3 4 5
1 last vote to show rating
add to favorites
×
Save as Personal and add changes to this tab that will be seen only by you. Learn more ›
×
You can save this tab as Personal to edit and correct it or add notes. All changes will be seen only by you. Learn more »
launch autoscroll
font size
0
reset
guitar tuner
edit
Autoscroll
slow
fast
+/-
esc
set tempo
stop
I used the guitar tabs as a guidance, probably not 100% correct but it sounds alright, 
the guitar is tuned in Drop C# so I assume the bass is as well.

Intro (optional) 0:08

|-7x-----------------------------|
|--------------------------------|
|-5x------   Many Times     -----|
|--------------------------------|


Verse: ‘Moved All My Shit’ 0:31
|----------------------------------------|          |-----------|
|----------------------------------------|          |----5h7----|
|----------------------------------------|          |--5--------|
|--00000000-55555555-22222222-55555555---| x 2 then |-----------|

|----------------------------------------|
|----------------------------------------|
|----------------------------------------|
|--00000000-55555555-22222222-55555555---| x2


‘I Spent a whole year in..’

|---------------------------------------------------|
|---------------------------------------------------|
|---------------------------------------------------|    x3
|-55555555-00000000-55555555-00000000-77777777------|

‘I’m running on empty’
Not too sure about the hammer on but it sounds alright
|-----------------------------------|
|-------5h7-------------------------|
|---5~-5----5~--7~--5~--5~--0-------|
|-----------------------------------|

‘I spent this year as a ghost’
|------------------------------------------|
|------------------------------------------|
|------------------------------------------|
|-55555555-00000000-55555555-77777777------| x2

Pre Verse
|---------------------------------------|
|---------------------------------------|
|---------------------------------------|
|--00000000-55555555-22222222-77777777--|


Verse
‘Been on a steady fast food diet’
|------------------------------------------|
|------------------------------------------|
|------------------------------------------|
|--00000000-55555555-22222222-55555555-----| x1 then C|x5x5x5x5x5x5/

Continued ‘my body feels...’
|----------------------------------------|
|----------------------------------------|
|----------------------------------------|
|--00000000-55555555-22222222-55555555---|

‘Unrolled cheap cotton blanket...’
|--------------------------------------|
|--------------------------------------|
|--------------------------------------|
|-22222222-55555555-00000000-77777777--| x3
‘I spent this year as a ghost’
|------------------------------------------|
|------------------------------------------|
|------------------------------------------|
|-55555555-00000000-55555555-77777777------|

Bridge
|---------------------------|
|---------------------------|
|---------------------------|
|-0~---5~---2~---5~----x4---|

‘I’m getting there’

(Optional with keyboard)
|-------|
|-------|
|-------|
|-5-2-0-|

{ ‘I CAME OUT SWINGING’                                                  }
{                                                                        }
{ |---------------------------------------------------------------|      }
{ |---------------------------------------------------------------|      }
{ |---------------------------------------------------------------|      }
{ |-00000000-55555555-99999999-77777777-------------------------|x2      }
{                                                                        }
{ ‘I’m gettin’ there!’                                                   }
{ |----------|                                                           }
{ |----------|                                                           }
{ |----------|                                                           }
{ |-9~-7~-5~-|                                                           }

Whole part x2

Finish on Open C (E)








| /  slide up
| \  slide down
| h  hammer-on
| p  pull-off
| ~  vibrato
| +  harmonic
| x  Mute note

♔
Surry

            
            
Suggest correction
Creating personal tab
Creating personal tab
You can edit any tab online and save it as your Personal.

You can edit, replace or remove any tab part or add personal notes – all changes will be seen only by you.

Personal tabs can be accessed anytime from any device, even offline.
Learn more »
Give kudos to tab author, rate the tab!
1 2 3 4 5
comments
print report bad tab
1 comment total.
0 reply
tlamere 10 Sep 18, 2014 06:12 PM

on the bridge, I hear 0---5---2---7

guest
You may want to rate the tab now too:
select rating
Wanna post a correction for this tab? Suggest correction