Oops, an error
Loading. Please wait.

Cigarettes And Saints tab

version 2
version 2

Whole song

Interactive

7,126 views 63 this week
1 commentread comment
1 2 3 4 5
x 12
add to favorites
×
Save as Personal and add changes to this tab that will be seen only by you. Learn more ›
×
You can save this tab as Personal to edit and correct it or add notes. All changes will be seen only by you. Learn more »
launch autoscroll
font size
0
reset
how to read this tab
guitar tuner
edit
Autoscroll
slow
fast
+/-
esc
set tempo
stop
The Wonder Years – Cigarettes and Saints

Tabbed by GetMad, based on Blake McConnell's (NoCompz43) tab (version 1).

I know some doubled guitar parts are still missing, including the 'solo'. I might add these later,
but I thought the current improvements deserved to be posted already.

Tune half step down

[Verse 1]
e|-----7--------------------------------7------------------------------------|
B|--8/9-9-9b10b9--------------9~-7~--8/9-9-9b10b9---9~-7~--------------------|
G|--------------9~--------9~---------------------9--------9-8-6--------------|
D|---------------------6/9--------------------------------9-9-9--------------|
A|---------------------------------------------------------------------------|
E|---------------------------------------------------------------------------|

[Chorus]
e|-----------------------------0--0-----0------7-7-7h9p7---------------------|
B|--9--7-9-7-9--7-9-7-----------0--0-----0--8/9---------9~-------------------|
G|--9--9-9-9-9--9-9-9-9-8-6-----------6----------------------x2--------------|
D|--------------------9-9-9---6--6---7-7-------------------------------------|
A|---------------------------------------------------------------------------|
E|---------------------------------------------------------------------------|

[Interlude]
e|----------7----------------------0~--00000000------------------------------|
B|-9~-7~-8/9-9-9b10b9----9~-7~-----0~--00000000------------------------------|
G|-------------------9~--------9-8-9~--99999999------------------------------|
D|-----------------------------9-9-9~--99999999------------------------------|
A|---------------------------------0~--00000000------------------------------|
E|---------------------------------------------------------------------------|

Chorus (slightly altered)
e|-----------------------------0--0-----0------7-----------------------------|
B|--9--7-9-7-9--7-9-7-----------0--0-----0--8/9-9-9b10b9---------------------|
G|--9--9-9-9-9--9-9-9-9-8-6-----------6-----------------9~---x2--------------|
D|--------------------9-9-9---6--6---7-7-------------------------------------|
A|---------------------------------------------------------------------------|
E|---------------------------------------------------------------------------|

[Bridge]
Guitar 1:
e|---------------------------------------------------------------------------|
B|---------------------------------------------------------------------------|
G|---------------------------------------------------------------------------|
D|-44444444-77777777-22222222-22222222--x2------4--7--11-9-7~----------------|
A|-44444444-77777777-22222222-22222222----------4--7--11-9-7~----------------|
E|-22222222-55555555-00000000-00000000----------2--5--9--7-5~----------------|

e|------------------------0--------------------------------------------------|
B|--------------------0h4--4--0----------------------------------------------|
G|-------------------6---------6---------------------------------------------|
D|---6-------9------7-----------6----x8--------------------------------------|
A|--7-7--9/11-9----0---------------------------------------------------------|
E|-0-------------------------------------------------------------------------|

After 4 of the 8 times of the above, guitar 2 comes in:
e|-0-0-0-0-0-0-0-0-0-0-0-0--0-0-0-0-0-0----0-0-0-0---------------------------|
B|-9-9-9-9-9-9-9-9-9-9-7-7--9-9-9-9-9-9b10-9-9-7-7---------------------------|
G|---------------------------------------------------------------------------|
D|---------------------------------------------------------------------------|
A|---------------------------------------------------------------------------|
E|---------------------------------------------------------------------------|

e|-0-0-0-0-0-0-0-0-0-0-0-0--0-0-0-0-0-0----0--0--0-0-------------------------|
B|-9-9-9-9-9-9-9-9-9-9-7-7--9-9-9-9-9-9b10-12-12-7-7-------------------------|
G|---------------------------------------------------------------------------|
D|---------------------------------------------------------------------------|
A|---------------------------------------------------------------------------|
E|---------------------------------------------------------------------------|

e|-0-0-0-0-0-0----0--0--0-0-----------0-0-0-0-0-0----0-0-0-0-----------------|
B|-9-9-9-9-9-9b10-12-12-7-7-----------9-9-9-9-9-9b10-9-9-7-7-----------------|
G|----------------------------x3---------------------------------------------|
D|---------------------------------------------------------------------------|
A|---------------------------------------------------------------------------|
E|---------------------------------------------------------------------------|

Guitar 1:
e|---------------------------------------------------------------------------|
B|---------------------------------------------------------------------------|
G|---------------------------------------------------------------------------|
D|-22222222-22222222-77777777-77777777---x4----------------------------------|
A|-22222222-22222222-77777777-77777777---------------------------------------|
E|-00000000-00000000-55555555-55555555---------------------------------------|
   ........ ........ ........ ........

Guitar 2:
e|-0-0-0-0-0-0-0-0-0-0-0-0------------0-0-0-0-0-0----0--0--0--0-0------------|
B|-5-5-5-5-5-5-5-4-4-4-7-7------------9-9-9-9-9-9b10-12-12-12-7-7------------|
G|--------------------------x4-------------------------------------x4--------|
D|---------------------------------------------------------------------------|
A|---------------------------------------------------------------------------|
E|---------------------------------------------------------------------------|

[Outro]
e|---------------------------------------------------------------------------|
B|---------------------------------------------------------------------------|
G|---------------------------------------------------------------------------|
D|-22222222-22222222-77777777-77777777--x4-----------------------------------|
A|-22222222-22222222-77777777-77777777---------------------------------------|
E|-00000000-00000000-55555555-55555555---------------------------------------|

e|---------------------------------------------------------------------------|
B|---------------------------------------------------------------------------|
G|---------------------------------------------------------------------------|
D|-222-22-22-22-777-77-77-77-222-22-22-22-77777777-77777777-2----------------|
A|-222-22-22-22-777-77-77-77-222-22-22-22-77777777-77777777-2----------------|
E|-000-00-00-00-555-55-55-55-000-00-00-00-55555555-55555555-0----------------|



************************************

| b  Bend
| /  Slide up
| ~  Vibrato
| h  Hammer-on
| p  Pull-off
| x  Dead note

************************************

            
            
Suggest correction
Creating personal tab
Creating personal tab
You can edit any tab online and save it as your Personal.

You can edit, replace or remove any tab part or add personal notes – all changes will be seen only by you.

Personal tabs can be accessed anytime from any device, even offline.
Learn more »
comments
print report bad tab
1 comment total.
0 reply
Garth4325 10 Aug 11, 2017 03:48 PM

[Verse 1]
e|-----77-------------------------------77------------------------------------|
B|--8/9---9b10b9--------------9~-7~--8/9---9b10b9---9~-7~--------------------|
G|--------------9~--------9~---------------------9--------9-8-6--------------|
D|---------------------6/9--------------------------------9-9-9--------------|
A|---------------------------------------------------------------------------|
E|---------------------------------------------------------------------------|

That should be how the main riff goes other than that pretty solid

guest
You may want to rate the tab now too:
select rating
Wanna post a correction for this tab? Suggest correction