Oops, an error
Loading. Please wait.

My Last Semester tab

version 1
version 1

Whole song

Interactive

24,895 views 9 this week
6 commentsread comments
1 2 3 4 5
x 13
add to favorites
×
Save as Personal and add changes to this tab that will be seen only by you. Learn more ›
×
You can save this tab as Personal to edit and correct it or add notes. All changes will be seen only by you. Learn more »
launch autoscroll
font size
0
reset
how to read this tab
guitar tuner
edit
Autoscroll
slow
fast
+/-
esc
set tempo
stop
Song: My Last Semester
Artist: The Wonder Years
Album: The Upsides

This is an extremely good song by The Wonder Years and it's separated into rhythm guitar 
(Gtr. 1) and lead guitar (Gtr. 2). It should be fairly easy to follow, but if you've 
got any questions or things you think should be changed, just comment below.

=============================================================================
Intro
=============================================================================
Gtr. 1 - I'm not sad anymore...
d#----------------------------|------------------------------|
A#----------------------------|------------------------------|
F#----------------------------|------------------------------|
C#----------------------------|------------------------------|
G#----------------------------|------------------------------|
C#----------------------------|------------------------------|
                                                             |
Gtr. 2 - I'm not sad anymore...                              |
d#----------------------------|------------------------------|
A#----------------------------|---------1-------------1------|
F#---------2------------2-----|------0------0---0--------0---|
C#-----5-----5---5--------5---|-2-3-----------3----3-------3-|
G#-3-----------3-----3------3-|------------------------------|
C#----------------------------|------------------------------|

Gtr. 1 - If it would pick a shoulder to lean on...
------------------------------|------------------------|
------------------------------|------------------------|
------------------------------|------------------------|
------------------------------|------------------------|
------------------------------|------------------------|
------------------------------|------------------------|
                                                       |
Gtr. 2 - If it would pick a shoulder to lean on...     |
------------------------------|--------------------3~~-|
------------------------------|--------------------3~~-|
-----------5------------5-----|-----5-----5-----5--0~~-|
-0------3------3---3------3---|-3-5---5-3---3-2--------|
---3\5-----------5----5-----5-|------------------------|
------------------------------|------------------------|

=============================================================================
Verse Part 1
=============================================================================
Gtr. 1 - I'm not sad anymore...
-----------------|-----------------|-----------------|-----------------|
-----------------|-----------------|-----------------|-----------------|
-5-5-5-5-5-5-5-5-|-5-5-5-5-5-5-5-5-|-5-5-5-5-5-5-5-5-|-5-5-5-5-5-5-5-5-|
-5-5-5-5-5-5-5-5-|-5-5-5-5-5-5-5-5-|-5-5-5-5-5-5-5-5-|-5-5-5-5-5-5-5-5-|
-3-3-3-3-3-3-3-3-|-3-3-3-3-3-3-3-3-|-3-3-3-3-3-3-3-3-|-3-3-3-3-3-3-3-3-|
-----------------|-----------------|-----------------|-----------------|
                                                                       |
Gtr. 2 - I'm not sad anymore...                                        |
-----------------|-----------------|-----------------|-----------------|
-----------------|-----------------|-----------------|-----------------|
-5-5-5-5-5-5-5-5-|-5-5-5-5-5-5-5-5-|-5-5-5-5-5-5-5-5-|-5-5-5-5-5-5-5-5-|
-----------------|-----------------|-----------------|-----------------|
-3-3-3-3-3-3-3-3-|-3-3-3-3-3-3-3-3-|-3-3-3-3-3-3-3-3-|-3-3-3-3-3-3-3-3-|
-----------------|-----------------|-----------------|-----------------|

Gtr. 1 - And the homophobic bullshit...
-----------------|-----------------|-----------------|-----------------|
-----------------|-----------------|-----------------|-----------------|
-----------------|-----------------|-----------------|-----------------|
-3-3-3-3-3-3-3-3-|-3-3-3-3-3-3-3-3-|-3-3-3-3-3-3-3-3-|-3-3-3-3-3-3-3-3-|
-3-3-3-3-3-3-3-3-|-3-3-3-3-3-3-3-3-|-3-3-3-3-3-3-3-3-|-3-3-3-3-3-3-3-3-|
-3-3-3-3-3-3-3-3-|-3-3-3-3-3-3-3-3-|-3-3-3-3-3-3-3-3-|-3-3-3-3-3-3-3-3-|
                                                                       |
Gtr. 2 - And the homophobic bullshit...                                |
-----------------|-----------------|-----------------|-----------------|
-----------------|-----------------|-----------------|-----------------|
-1010101010101010|-9-9-9-9-9-9-9-9-|-7-7-7-7-7-7-7-7-|-9-9-9-9-9-9-9-9-|
-----------------|-----------------|-----------------|-----------------|
-8-8-8-8-8-8-8-8-|-7-7-7-7-7-7-7-7-|-5-5-5-5-5-5-5-5-|-7-7-7-7-7-7-7-7-|
-----------------|-----------------|-----------------|-----------------|

Gtr. 1 - Just because you didn't...
-----------------|-----------------|-----------------|-----------------|
-----------------|-----------------|-----------------|-----------------|
-7-7-7-7-7-7-7-7-|-7-7-7-7-7-7-7-7-|-----------------|-----------------|
-7-7-7-7-7-7-7-7-|-7-7-7-7-7-7-7-7-|-5~--------------|-5---5---5---5---|
-5-5-5-5-5-5-5-5-|-5-5-5-5-5-5-5-5-|-5~--------------|-5---5---5---5---|
-----------------|-----------------|-5~--------------|-5---5---5---5---|
                                                                       |
Gtr. 2 - Just because you didn't...                                    |
-----------------|-----------------|-----------------|-----------------|
-----------------|---3-------------|-----------------|-6---5---3-------|
--------------5--|--------5--------|-5~--------------|-------------5---|
-------3---------|--------------3--|-3~--------------|-----------------|
-5---------------|-----------------|-5~--------------|-----------------|
-----------------|-----------------|-----------------|-----------------|

Gtr. 1 - I can't take anymore...
-----------------|-----------------|-----------------|-----------------|
-----------------|-----------------|-----------------|-----------------|
-5-5-5-5-5-5-5-5-|-5-5-5-5-5-5-5-5-|-5-5-5-5-5-5-5-5-|-5-5-5-5-5-5-5-5-|
-5-5-5-5-5-5-5-5-|-5-5-5-5-5-5-5-5-|-5-5-5-5-5-5-5-5-|-5-5-5-5-5-5-5-5-|
-3-3-3-3-3-3-3-3-|-3-3-3-3-3-3-3-3-|-3-3-3-3-3-3-3-3-|-3-3-3-3-3-3-3-3-|
-----------------|-----------------|-----------------|-----------------|
                                                                       |
Gtr. 2 - I can't take anymore...                                       |
-----------------|-----------------|-----------------|-----------------|
-----------------|-----------------|-----------------|-----------------|
-----------------|-2---------------|-----------------|-2---------------|
---------5-------|-----5-------5---|-----------------|-----5-----------|
-3---------------|---------3-------|----3------------|------------3----|
-----------------|-----------------|-----------------|-----------------|

Gtr. 1 - The shitty dudes with tribal tattoos...
-----------------|-----------------|-----------------|-----------------|
-----------------|-----------------|-----------------|-----------------|
-----------------|-----------------|-----------------|-----------------|
-3-3-3-3-3-3-3-3-|-3-3-3-3-3-3-3-3-|-3-3-3-3-3-3-3-3-|-3-3-3-3-3-3-3-3-|
-3-3-3-3-3-3-3-3-|-3-3-3-3-3-3-3-3-|-3-3-3-3-3-3-3-3-|-3-3-3-3-3-3-3-3-|
-3-3-3-3-3-3-3-3-|-3-3-3-3-3-3-3-3-|-3-3-3-3-3-3-3-3-|-3-3-3-3-3-3-3-3-|
                                                                       |
Gtr. 2 - The shitty dudes with tribal tattoos...                       |
-----------------|-----------------|-----------------|-----------------|
-----------------|--1--------------|-----------------|--1--------------|
------------0----|----------0------|----0------------|-------0---------|
-2----3----------|--------------3--|------------3----|-------------3---|
-----------------|-----------------|-----------------|-----------------|
-----------------|-----------------|-----------------|-----------------|

Gtr. 1 - Lining up cheap beer...
-----------------|-----------------|-----------------|-----------------|
-----------------|-----------------|-----------------|-----------------|
-7-7-7-7-7-7-7-7-|-7-7-7-7-7-7-7-7-|-7-7-7-7-7-7-7-7-|-7-7-7-7-7-7-7-7-|
-7-7-7-7-7-7-7-7-|-7-7-7-7-7-7-7-7-|-7-7-7-7-7-7-7-7-|-7-7-7-7-7-7-7-7-|
-5-5-5-5-5-5-5-5-|-5-5-5-5-5-5-5-5-|-5-5-5-5-5-5-5-5-|-5-5-5-5-5-5-5-5-|
-----------------|-----------------|-----------------|-----------------|
                                                                       |
Gtr. 2 - Lining up cheap beer...                                       |
-----------------|-----------------|-----------------|-----------------|
-----------------|-----------------|-----------------|-----------------|
-----------------|-5---------------|-----------------|--5--------------|
-0-----------3---|-------3---------|----3------------|--------3--------|
-----3\5---------|-------------5---|------------5----|-------------5---|
-----------------|-----------------|-----------------|-----------------|

Gtr. 1 - For a party...
-----------------|-----------------|-----------------|-----------------|
-----------------|-----------------|-----------------|-----------------|
-----------------|-----------------|-----------------|-----------------|
-5---5---5---5---|-5---5---5---5---|---------3---3---|-3---3---3---3---|
-5---5---5---5---|-5---5---5---5---|---------3---3---|-3---3---3---3---|
-5---5---5---5---|-5---5---5---5---|---------3---3---|-3---3---3---3---|
                                                                       |
Gtr. 2 - For a party...                                                |
-----------------|-----------------|-----------------|-----------------|
-----------------|-----------------|-----------------|-----------------|
-----------------|-----------------|-----------------|------------9-10-|
-5---5---5---5---|-5---5---5---5---|---------3---3---|-3---3---3-------|
-5---5---5---5---|-5---5---5---5---|---------3---3---|-3---3---3--7-8--|
-5---5---5---5---|-5---5---5---5---|---------3---3---|-3---3---3-------|

=============================================================================
Verse Part 2
=============================================================================
Gtr. 1 - They're trying to convince freshmen...
------------------------------|-----------------------------|
------------------------------|-----------------------------|
-5-5-5-5-7-7------------------|-5-5-5-5-7-7-----------------|
-5-5-5-5-7-7-2-2-3~----3--3~--|-5-5-5-5-7-7-2-2-3~----3--3~-|
-3-3-3-3-5-5-2-2-3~----3--3~--|-3-3-3-3-5-5-2-2-3~----3--3~-|
-------------2-2-3~----3--3~--|-------------2-2-3~----3--3~-|
   . . .   . . .                  . . .   . . .             |
Gtr. 2 - They're trying to convince freshmen...             |
------------------------------|-----------------------------|
------------------------------|-----------------------------|
-1212121210109-9-7~----7--5~--|-1212121210109-9-10/12-14\12-|
------------------------------|-----------------------------|
-101010108-8-7-7-5~----5--3~--|-101010108-8-7-7-8-/10-12\10-|
------------------------------|-----------------------------|

Gtr. 1 - On keg stands and Matt says...
-----------------|-----------------|-----------------|-----------------|
-----------------|-----------------|-----------------|-----------------|
-5-5-5-5-5-5-5-5-|-7-7-7-7-7-7-7-7-|-----------------|-----------------|
-5-5-5-5-5-5-5-5-|-7-7-7-7-7-7-7-7-|-7--7-7-5--5-7-7-|-----------------|
-3-3-3-3-3-3-3-3-|-5-5-5-5-5-5-5-5-|-7--7-7-5--5-7-7-|-----------------|
-----------------|-----------------|-7--7-7-5--5-7-7-|-----------------|
                                        . .    .                       |
Gtr. 2 - On keg stands and Matt says...                                |
-----------------|-----------------|-----------------|-----------------|
-----------------|-----------------|-----------------|-----------------|
-----------------|-----------------|-7--7-7-7--7-7-7-|------------9-10-|
-----------------|-----------------|-----------------|-----------------|
-----------------|-----------------|-5--5-5-5--5-5-5-|------------7-8--|
-----------------|-----------------|-----------------|-----------------|

Gtr. 1 - All this mallrat goth shit...
------------------------------|-----------------------------|
------------------------------|-----------------------------|
-5-5-5-5-7-7------------------|-5-5-5-5-7-7-----------------|
-5-5-5-5-7-7-2-2-3~----3--3~--|-5-5-5-5-7-7-2-2-3~----3--3~-|
-3-3-3-3-5-5-2-2-3~----3--3~--|-3-3-3-3-5-5-2-2-3~----3--3~-|
-------------2-2-3~----3--3~--|-------------2-2-3~----3--3~-|
   . . .   . . .                  . . .   . . .             |
Gtr. 2 - All this mallrat goth shit...                      |
------------------------------|-----------------------------|
------------------------------|-----------------------------|
-1212121210109-9-7~----7--5~--|-1212121210109-9-10/12-14\12-|
------------------------------|-----------------------------|
-101010108-8-7-7-5~----5--3~--|-101010108-8-7-7-8-/10-12\10-|
------------------------------|-----------------------------|

Gtr. 1 - But there are still kids...
-----------------|-----------------|-----------------|-----------------|
-----------------|-----------------|-----------------|-----------------|
-5-5-5-5-5-5-5-5-|-7-7-7-7-7-7-7-7-|-----------------|-----------------|
-5-5-5-5-5-5-5-5-|-7-7-7-7-7-7-7-7-|-7---------------|-----------------|
-3-3-3-3-3-3-3-3-|-5-5-5-5-5-5-5-5-|-7---------------|-----------------|
-----------------|-----------------|-7---------------|-----------------|
                                                                       |
Gtr. 2 - But there are still kids...                                   |
-----------------|-----------------|-----------------|-----------------|
-----------------|-----------------|-----------------|-----------------|
-5-5-5-5-5-5-5-5-|-7-7-7-7-7-7-7-7-|-9---------------|-----------------|
-----------------|-----------------|-----------------|-----------------|
-3-3-3-3-3-3-3-3-|-5-5-5-5-5-5-5-5-|-7---------------|-----------------|
-----------------|-----------------|-----------------|-----------------|

College hit those dudes like a ton of bricks.

=============================================================================
Chorus
=============================================================================
Gtr. 1 - [1st Time] So, they're calling it blasphemy...
[2nd Time] But this place just brings misery...
-----------------|-----------------|-----------------|-----------------|
-----------------|-----------------|-----------------|-----------------|
-5-5-5-5-5-5-5-5-|-----------------|-----------------|-----------------|
-5-5-5-5-5-5-5-5-|-7-7-7-7-5-5-5-5-|-0-0-0-0-0-0-0-0-|-3-3-3-3-3-3-3-3-|
-3-3-3-3-2-2-2-2-|-7-7-7-7-5-5-5-5-|-0-0-0-0-0-0-0-0-|-3-3-3-3-3-3-3-3-|
-----------------|-7-7-7-7-5-5-5-5-|-0-0-0-0-0-0-0-0-|-3-3-3-3-3-3-3-3-|\
                                                                       | \
Gtr. 2 - [1st Time] So, they're calling it blasphemy...                |  x2
[2nd Time] But this place just brings misery...                        | /
-8---8---7---7---|-8---8---7---7---|-----------------|-----------------|/
---8---8---8---8-|---8---8---8---8-|-10--10--8---8---|-6---6---5---5---|
-----------------|-----------------|---7---7---7---7-|---5---5---5---5-|
-----------------|-----------------|-----------------|-----------------|
-----------------|-----------------|-----------------|-----------------|
-----------------|-----------------|-----------------|-----------------|

Gtr. 1 - I don't fit in...
-----------------|-----------------|-----------------|-----------------|
-----------------|-----------------|-----------------|-----------------|
----------5--5---|-----------------|----------5--5---|-----------------|
-7--7-----5--5---|-3--3~-----5--5~-|-7--7-----5--5---|-3--3~-----------|
-7--7-----3--3---|-3--3~-----5--5~-|-7--7-----3--3---|-3--3~-----------|
-7--7------------|-3--3~-----5--5~-|-7--7------------|-3--3~-----------|
                                                                       |
Gtr. 2 - I don't fit in...                                             |
-----------------|-----------------|-----------------|-----------------|
-----------------|-----------------|-----------------|------^-^--^-----|
-5--5-----7\-5---|-7/-9~---9\10/9~-|-5--5-----7/-5---|-7/-5-7-7~-7-5h7-|
-----------------|-----------------|-----------------|-----------------|
-3--3-----5\-3---|-5/-7~---7\8-/7~-|-3--3-----5/-3---|-5/-3------------|
-----------------|-----------------|-----------------|-----------------|

=============================================================================
Post-Chorus
=============================================================================
Gtr. 1
-----------------|-----------------|-----------------|-----------------|
-----------------|-----------------|-----------------|-----------------|
-----------------|-----------------|-----------------|-----------------|
-3--x-3--x-3-----|-3--x-3--x-3-----|-3--x-3--x-3-----|-3--x-3--x-3-----|
-3--x-3--x-3-----|-3--x-3--x-3-----|-3--x-3--x-3-----|-3--x-3--x-3-----|
-3--x-3--x-3-----|-3--x-3--x-3-----|-3--x-3--x-3-----|-3--x-3--x-3-----|
                                                                       |
Gtr. 2                                                                 |
-----------------|-^---------------|-----------------|-^---------------|
-----------------|-8---------------|-----------------|-8---------------|
-5~-------------5|----------7h9p7~-|-0-9--7--5--0~---|---------7-5~----|
------------5h7--|-----------------|-----------------|-----------------|
-----------------|-----------------|-----------------|-----------------|
-----------------|-----------------|-----------------|-----------------|

=============================================================================
Verse 2
=============================================================================
Gtr. 1 - I'm fucking losing my head...
-----------------|-----------------|-----------------|-----------------|
-----------------|-----------------|-----------------|-----------------|
-----------------|-----------------|-----------------|-----------------|
-----------------|-----------------|-----------------|-----------------|
-----------------|-----------------|-----------------|-----------------|
-----------------|-----------------|-----------------|-----------------|
                                                                       |
Gtr. 2 - I'm fucking losing my head...                                 |
-----------------|-----------------|-----------------|-----------------|
-----------------|-----------------|-----------------|-----------------|
-5-5-5-5-5-5-5-5-|-5-5-5-5-5-5-5-5-|-5-5-5-5-5-5-5-5-|-5-5-5-5-5-5-5-5-|
-----------------|-----------------|-----------------|-----------------|
-3-3-3-3-3-3-3-3-|-3-3-3-3-3-3-3-3-|-3-3-3-3-3-3-3-3-|-3-3-3-3-3-3-3-3-|
-----------------|-----------------|-----------------|-----------------|

Gtr. 1 - Kids outside with guitars...
-----------------|-----------------|-----------------|-----------------|
-----------------|-----------------|-----------------|-----------------|
-----------------|-----------------|-----------------|-----------------|
-----------------|-----------------|-----------------|-----------------|
-----------------|-----------------|-----------------|-----------------|
-----------------|-----------------|-----------------|-----------------|
                                                                       |
Gtr. 2 - Kids outside with guitars...                                  |
-----------------|-----------------|-----------------|-----------------|
-----------------|-----------------|-----------------|-----------------|
-1010101010101010|-1010101010101010|-1010101010101010|-1010101010101010|
-----------------|-----------------|-----------------|-----------------|
-8-8-8-8-8-8-8-8-|-8-8-8-8-8-8-8-8-|-8-8-8-8-8-8-8-8-|-8-8-8-8-8-8-8-8-|
-----------------|-----------------|-----------------|-----------------|

Gtr. 1 - No one wants to hear...
-----------------|-----------------|-----------------|-----------------|
-----------------|-----------------|-----------------|-----------------|
-----------------|-----------------|-----------------|-----------------|
-----------------|-----------------|-5~--------------|-5---5---5---5---|
-----------------|-----------------|-5~--------------|-5---5---5---5---|
-----------------|-----------------|-5~--------------|-5---5---5---5---|
                                                                       |
Gtr. 2 - No one wants to hear...                                       |
-----------------|-----------------|-----------------|-----------------|
-----------------|---3-------------|-----------------|-6---5---3-------|
--------------5--|--------5--------|-5~--------------|-------------5---|
-------3---------|--------------3--|-3~--------------|-----------------|
-5---------------|-----------------|-5~--------------|-----------------|
-----------------|-----------------|-----------------|-----------------|

Gtr. 1 - All these fake tan girls...
-----------------|-----------------|-----------------|-----------------|
-----------------|-----------------|-----------------|-----------------|
-5-5-5-5-5-5-5-5-|-5-5-5-5-5-5-5-5-|-5-5-5-5-5-5-5-5-|-5-5-5-5-5-5-5-5-|
-5-5-5-5-5-5-5-5-|-5-5-5-5-5-5-5-5-|-5-5-5-5-5-5-5-5-|-5-5-5-5-5-5-5-5-|
-3-3-3-3-3-3-3-3-|-3-3-3-3-3-3-3-3-|-3-3-3-3-3-3-3-3-|-3-3-3-3-3-3-3-3-|
-----------------|-----------------|-----------------|-----------------|
                                                                       |
Gtr. 2 - All these fake tan girls...                                   |
-----------------|-----------------|-----------------|-----------------|
-----------------|-----------------|-----------------|-----------------|
-----------------|-2---------------|-----------------|-2---------------|
---------5-------|-----5-------5---|-----------------|-----5-----------|
-3---------------|---------3-------|----3------------|------------3----|
-----------------|-----------------|-----------------|-----------------|

Gtr. 1 - And getting mocked in return...
-----------------|-----------------|-----------------|-----------------|
-----------------|-----------------|-----------------|-----------------|
-----------------|-----------------|-----------------|-----------------|
-3-3-3-3-3-3-3-3-|-3-3-3-3-3-3-3-3-|-3-3-3-3-3-3-3-3-|-3-3-3-3-3-3-3-3-|
-3-3-3-3-3-3-3-3-|-3-3-3-3-3-3-3-3-|-3-3-3-3-3-3-3-3-|-3-3-3-3-3-3-3-3-|
-3-3-3-3-3-3-3-3-|-3-3-3-3-3-3-3-3-|-3-3-3-3-3-3-3-3-|-3-3-3-3-3-3-3-3-|
                                                                       |
Gtr. 2 - And getting mocked in return...                               |
-----------------|-----------------|-----------------|-----------------|
-----------------|--1--------------|-----------------|--1--------------|
------------0----|----------0------|----0------------|-------0---------|
-2----3----------|--------------3--|------------3----|-------------3---|
-----------------|-----------------|-----------------|-----------------|
-----------------|-----------------|-----------------|-----------------|

Gtr. 1 - You're too caught in semantics...
-----------------|-----------------|-----------------|-----------------|
-----------------|-----------------|-----------------|-----------------|
-7-7-7-7-7-7-7-7-|-7-7-7-7-7-7-7-7-|-7-7-7-7-7-7-7-7-|-7-7-7-7-7-7-7-7-|
-7-7-7-7-7-7-7-7-|-7-7-7-7-7-7-7-7-|-7-7-7-7-7-7-7-7-|-7-7-7-7-7-7-7-7-|
-5-5-5-5-5-5-5-5-|-5-5-5-5-5-5-5-5-|-5-5-5-5-5-5-5-5-|-5-5-5-5-5-5-5-5-|
-----------------|-----------------|-----------------|-----------------|
                                                                       |
Gtr. 2 - You're too caught in semantics...                             |
-----------------|-----------------|-----------------|-----------------|
-----------------|-----------------|-----------------|-----------------|
-----------------|-5---------------|-----------------|--5--------------|
-0-----------3---|-------3---------|----3------------|--------3--------|
-----3\5---------|-------------5---|------------5----|-------------5---|
-----------------|-----------------|-----------------|-----------------|

Gtr. 1 - But you're no fucking different.
-----------------|-----------------|-----------------|-----------------|
-----------------|-----------------|-----------------|-----------------|
-----------------|-----------------|-----------------|-----------------|
-5---5---5---5---|-5---5---5---5---|-3---3---3---3---|-3-3-3-3-3-------|
-5---5---5---5---|-5---5---5---5---|-3---3---3---3---|-3-3-3-3-3-------|
-5---5---5---5---|-5---5---5---5---|-3---3---3---3---|-3-3-3-3-3-------|
                                                                       |
Gtr. 2 - But you're no fucking different.                              |
-----------------|-----------------|-----------------|-----------------|
-----------------|-----------------|-----------------|-----------------|
-7---7---7---7---|-9---9---9---9---|-7---7---7---7---|-7-7-7-7-7-------|
-----------------|-----------------|-----------------|-----------------|
-5---5---5---5---|-7---7---7---7---|-5---5---5---5---|-5-5-5-5-5-------|
-----------------|-----------------|-----------------|-----------------|

=============================================================================
Chorus
=============================================================================
Gtr. 1 - [1st Time] So, they're calling it blasphemy...
[2nd Time] But this place just brings misery...
-----------------|-----------------|-----------------|-----------------|
-----------------|-----------------|-----------------|-----------------|
-5-5-5-5-5-5-5-5-|-----------------|-----------------|-----------------|
-5-5-5-5-5-5-5-5-|-7-7-7-7-5-5-5-5-|-0-0-0-0-0-0-0-0-|-3-3-3-3-3-3-3-3-|
-3-3-3-3-2-2-2-2-|-7-7-7-7-5-5-5-5-|-0-0-0-0-0-0-0-0-|-3-3-3-3-3-3-3-3-|
-----------------|-7-7-7-7-5-5-5-5-|-0-0-0-0-0-0-0-0-|-3-3-3-3-3-3-3-3-|\
                                                                       | \
Gtr. 2 - [1st Time] So, they're calling it blasphemy...                |  x2
[2nd Time] But this place just brings misery...                        | /
-8---8---7---7---|-8---8---7---7---|-----------------|-----------------|/
---8---8---8---8-|---8---8---8---8-|-10--10--8---8---|-6---6---5---5---|
-----------------|-----------------|---7---7---7---7-|---5---5---5---5-|
-----------------|-----------------|-----------------|-----------------|
-----------------|-----------------|-----------------|-----------------|
-----------------|-----------------|-----------------|-----------------|

Gtr. 1 - I don't fit in...
-----------------|-----------------|-----------------|-----------------|
-----------------|-----------------|-----------------|-----------------|
-----------------|-----------------|-----------5-5---|-----------------|
-7-7~------------|-5~--------------|-7-7-------5-5---|-3-3~------------|
-7-7~------------|-5~--------------|-7-7-------3-3---|-3-3~------------|
-7-7~------------|-5~--------------|-7-7-------------|-3-3~------------|
                                                                       |
Gtr. 2 - I don't fit in...                                             |
-----------------|-----------------|-----------------|-----------------|
-----------------|-----------------|-----------------|-----------------|
-5-5~------------|-7~--------------|-5-5-------7\5---|-7\5~------------|
-----------------|-----------------|-----------------|-----------------|
-3-3~------------|-5~--------------|-3-3-------5\3---|-5\3~------------|
-----------------|-----------------|-----------------|-----------------|

=============================================================================
Solo
=============================================================================
Gtr. 1
-----------------|-----------------|-----------------|-----------------|
-----------------|-----------------|-----------------|-----------------|
----------5--5---|-----------------|----------5--5---|-----------------|
-7--7-----5--5---|-3--3~-----5--5~-|-7--7-----5--5---|-3--3~-----------|
-7--7-----3--3---|-3--3~-----5--5~-|-7--7-----3--3---|-3--3~-----------|
-7--7------------|-3--3~-----5--5~-|-7--7------------|-3--3~-----------|
                                                                       |
Gtr. 2                                                                 |
-----------------|-----------------|-----------------|-----------------|
-----------------|-5----------5----|-----------------|-5-----------8---|
----5-----5--7---|---7--5-7-5---7-5|-7-5---------5-7-|---7-575-7/9---9-|
-7-----7---------|-----------------|-----------7-----|-----------------|
-----------------|-----------------|-----------------|-----------------|
-----------------|-----------------|-----------------|-----------------|

Gtr. 1
-----------------|-----------------|-----------------|-----------------|
-----------------|-----------------|-----------------|-----------------|
----------5--5---|-----------------|----------5--5---|-----------------|
-7--7-----5--5---|-3--3~-----5--5~-|-7--7-----5--5---|-3--3~-----------|
-7--7-----3--3---|-3--3~-----5--5~-|-7--7-----3--3---|-3--3~-----------|
-7--7------------|-3--3~-----5--5~-|-7--7------------|-3--3~-----------|
                                                                       |
Gtr. 2                                                                 |
-----------------|-----------------|-----------------|-----------------|
-----------------|-5----------5----|-----------------|-5---------------|
----5-----5--7---|---7--5-7-5---7-5|-7-5---------5-7-|----7~-----------|
-7-----7---------|-----------------|-----------7-----|-----------------|
-----------------|-----------------|-----------------|-----------------|
-----------------|-----------------|-----------------|-----------------|

=============================================================================
Bridge
=============================================================================
Gtr. 1 - I'm not sad anymore...
It's two more months...
I don't make sense...
-------------------------------|-------------------------------------|
-------------------------------|-------------------------------------|
-------------------------------|-------------------------------------|
-------------------------------|3-3-3-3-3-3-3-3-------3-3-3-3-3-3~~--|
-------------------------------|3-3-3-3-3-3-3-3-------3-3-3-3-3-3~~--|
-------------------------------|3-3-3-3-3-3-3-3-------3-3-3-3-3-3~~--|\
                                                                     | \
Gtr. 2 - I'm not sad anymore...                                      |  \
It's two more months...                                              |   x3
I don't make sense...                                                |  /
-------------------------------|-------------------------------------| /
-------------------------------|-------------------------------------|/
----------2------------2-------|12121212-14/12-10\12~-121212-10-9-7~-|
------5-----5---5--------5---3-|-------------------------------------|
-3------------3-----3------3---|10101010-12/10-8-\10~-101010-8--7-5~-|
-------------------------------|-------------------------------------|

Gtr. 1 - I don't fit in anywhere but the back of the van.
-------------------------------|-------------------------------------|
-------------------------------|-------------------------------------|
-------------------------------|-------------------------------------|
-------------------------------|3-3-3-3-3-3-3-3-------3-3-3-3-3-3~~--|
-------------------------------|3-3-3-3-3-3-3-3-------3-3-3-3-3-3~~--|
-------------------------------|3-3-3-3-3-3-3-3-------3-3-3-3-3-3~~--|
                                                                     |
Gtr. 2 - I don't fit in anywhere but the back of the van.            |
-------------------------------|-------------------------------------|
-------------------------------|-------------------------------------|
-------------------------------|12121212-14/12-10\12~-121212-10-9-7~-|
-------------------------------|-------------------------------------|
-------------------------------|10101010-12/10-8-\10~-101010-8--7-5~-|
-------------------------------|-------------------------------------|

=============================================================================
Outro
=============================================================================
Gtr. 1 - I don't make sense...
-----------------|-----------------|-----------------|-----------------|
-----------------|-----------------|-----------------|-----------------|
-5-5-5-5-5-5-5-5-|-----------------|-----------------|-----------------|
-5-5-5-5-5-5-5-5-|-7-7-7-7-5-5-5-5-|-0~--------------|-3~--------------|
-3-3-3-3-2-2-2-2-|-7-7-7-7-5-5-5-5-|-0~--------------|-3~--------------|
-----------------|-7-7-7-7-5-5-5-5-|-0~--------------|-3~--------------|
                                                                       |
Gtr. 2 - I don't make sense...                                         |
-8---8---7---7---|-8---8---7---7---|-----------------|-----------------|
---8---8---8---8-|---8---8---8---8-|-10--10--8---8---|-6---6---5---5---|
-----------------|-----------------|---7---7---7---7-|---5---5---5---5-|
-----------------|-----------------|-----------------|-----------------|
-----------------|-----------------|-----------------|-----------------|
-----------------|-----------------|-----------------|-----------------|

Gtr. 1 - I don't fit in anywhere...
-----------------|-----------------|-----------------|-----------------|
-----------------|-----------------|-----------------|-----------------|
-5-5-5-5-5-5-5-5-|-----------------|-----------------|-----------------|
-5-5-5-5-5-5-5-5-|-7-7-7-7-5-5-5-5-|-0---x--0--0--0--|-3---x--3--3--3--|
-3-3-3-3-2-2-2-2-|-7-7-7-7-5-5-5-5-|-0---x--0--0--0--|-3---x--3--3--3--|
-----------------|-7-7-7-7-5-5-5-5-|-0---x--0--0--0--|-3---x--3--3--3--|
                                                                       |
Gtr. 2 - I don't fit in anywhere...                                    |
-8---8---7---7---|-8---8---7---7---|-----------------|-----------------|
---8---8---8---8-|---8---8---8---8-|-----------------|-----------------|
-----------------|-----------------|-9---x--9--9--9--|-7---x--7--7--7--|
-----------------|-----------------|-----------------|-----------------|
-----------------|-----------------|-7---x--7--7--7--|-5---x--5--5--5--|
-----------------|-----------------|-----------------|-----------------|

Gtr. 1 - So, they're calling it blasphemy...
-----------------|-----------------|-----------------|-----------------|
-----------------|-----------------|-----------------|-----------------|
-5~------5~------|-----------------|-----------------|-----------------|
-5~------5~------|-7~------5-------|-0-0-0-0-0-0-0-0-|-3-3-3-3-3-3-3-3-|
-3~------2~------|-7~------5-------|-0-0-0-0-0-0-0-0-|-3-3-3-3-3-3-3-3-|
-----------------|-7~------5-------|-0-0-0-0-0-0-0-0-|-3-3-3-3-3-3-3-3-|
                                                                       |
Gtr. 2 - So, they're calling it blasphemy...                           |
-----------------|-----------------|-----------------|-----------------|
-----------------|-----------------|-----------------|-----------------|
-5~------7~------|-9~------7-------|-----------------|-----------------|
-----------------|-----------------|-0-0-0-0-0-0-0-0-|-3-3-3-3-3-3-3-3-|
-3~------5~------|-7~------5-------|-0-0-0-0-0-0-0-0-|-3-3-3-3-3-3-3-3-|
-----------------|-----------------|-0-0-0-0-0-0-0-0-|-3-3-3-3-3-3-3-3-|

I'm not sad anymore. I'm just tired of this place.
The weight of the world be okay if it would pick a shoulder to lean on
So I could stand up straight.

I'm not sad anymore. I'm just tired of this place
And the homophobic bullshit that's somehow okay
Just because you didn't mean it that way.
I can't take anymore of all the scum in this place,
The shitty dudes with tribal tattoos all around me,
Lining up cheap beer and roofies for a party at their place.

They're trying to convince freshmen they're somebody
By spending all of their parents' money on keg stands
And Matt says I don't fit in.
All this mallrat goth shit is killing me.
I thought that would end with high school at least,
But there are still kids, and Matt says
College hit those dudes like a ton of bricks.

So, they're calling it blasphemy.
A fucking catastrophe.
They're saying it's a stupid choice to make,
But this place just brings misery.
I hate what it does to me.
I'm fucked but I can't escape the way
That I don't fit in with any of this.
I don't think we're the same.

I'm fucking losing my head trying to understand this;
Kids outside with guitars hoping for someone to notice.
No one wants to hear your sappy bullshit.

All these fake tan girls laughing at art school kids
And get mocked in return for being substanceless.
You're too caught in semantics to see it,
But you're no fucking different.

So, they're calling it blasphemy.
A fucking catastrophe.
They're saying it's a stupid choice to make,
But this place just brings misery.
I hate what it does to me.
I'm fucked but I can't escape the way
That I don't fit in with any of this.
I don't think we're the same.

No!

I'm not sad anymore. I'm just waiting.
It's two more months 'til I'm done with this.
I don't make sense to anyone but my best friends
And I don't fit in anywhere but the back of the van.

And I don't make sense to anyone but my best friends.
And I don't, I don't fit in anywhere but the back of the van.
And I don't know.

So, they're calling it blasphemy.
A fucking catastrophe.
They're saying it's a stupid choice to make.

            
            
Suggest correction
Creating personal tab
Creating personal tab
You can edit any tab online and save it as your Personal.

You can edit, replace or remove any tab part or add personal notes – all changes will be seen only by you.

Personal tabs can be accessed anytime from any device, even offline.
Learn more »
comments
print report bad tab
6 comments total. Showing first comments.
0 reply
eltroyo11 94 Nov 21, 2010 03:30 PM

This is great. I'd love to see you do more tabs from this album.

0 reply
EWaffle 104 Nov 23, 2010 01:16 PM

I might do one for Melrose Diner but I don't know if I'd be able to figure out both guitars.

+1 reply
xjerx 30 Feb 12, 2011 01:49 PM

Thanks for tabbing this out! The intro is a little off, I think it goes like this:

Intro Gtr. 2 - I'm not sad anymore...
d#----------------------------|-----------------------------|
A#----------------------------|---------1------------1------|
F#---------2------------2-----|------0------0---0-------0---|
C#-----5-----5---5--------5---|-2-3-----------3----3------3-|
G#-3-----------3-----3------3-|-----------------------------|
C#----------------------------|-----------------------------|

Gtr. 2 - If it would pick a shoulder to lean on...
------------------------------|--------------------3~~-|
------------------------------|--------------------3~~-|
-----------5------------5-----|-----5-----5-----5--0~~-|
-0------3------3---3------3---|-3-5---5-3---3-2--------|
---3\5-----------5----5-----5-|------------------------|
------------------------------|------------------------|

guest
You may want to rate the tab now too:
select rating
Wanna post a correction for this tab? Suggest correction