Oops, an error
Loading. Please wait.

The Devil Inside tab

version 4
version 4

Whole song

3,274 views 1 this week
2 commentsread comments
1 2 3 4 5
2 more votes to show rating
add to favorites
×
Save as Personal and add changes to this tab that will be seen only by you. Learn more ›
×
You can save this tab as Personal to edit and correct it or add notes. All changes will be seen only by you. Learn more »
launch autoscroll
font size
0
reset
how to read this tab
guitar tuner
edit
Autoscroll
slow
fast
+/-
esc
set tempo
stop
Guitar1:Rhythm
Guitar2:Lead

INTRO:
E|------------13-----------------------------------------|
B|------------17-----------------------------------------|
G|-----14--------------------9----9----------------------|(X2)
D|-----12--------------------7----7----------------------|
A|-----13-----------------88-8-88-8----------------------|
D|-000----000---0-3p03p0---------------------------------|
   ***    ***   *         **   **

PRE-VERSE:
E|--------|
B|--------|
G|--------|
D|0~------|
A|0~------|
D|0~------|

VERSE:
Guitar1:X2
E|-----------------------------------------------------|
B|-----------------------------------------------------|
G|-----------------------------------------------------|
D|-88888888888888888888888888888-5-555-555-555-55555---|
A|-88888888888888888888888888888-5-555-555-555-55555---|
D|-88888888888888888888888888888-5-555-555-555-55555---|
   *****************************
Guitar2:
E|-------------------------------------------------------------|
B|-------------------------------------------------------------|
G|-578578-356356-134134-356356---578578-356356-134134-356356---|
D|-------------------------------------------------------------|
A|-------------------------------------------------------------|
D|-------------------------------------------------------------|

E|-------------------------------------------------------------|
B|-134134-356356-578578-79107910-------------------------------|
G|-------------------------------578578-356356-134134-356356---|
D|-------------------------------------------------------------|
A|-------------------------------------------------------------|
D|-------------------------------------------------------------| 

CHORUS:
Guitar1:X2
E|------------------------------------------------------|
B|------------------------------------------------------|
G|------------------------------------------------------|
D|-88888888888888888888888888888-5555555555555555555----|
A|-88888888888888888888888888888-5555555555555555555----|
D|-88888888888888888888888888888-5555555555555555555----|
Guitar2:(Tremolo)
E|-17(X12)-----------------------17(X8)-----18/20-18/20-|
B|--------18(X5)17(X3)-15--------------18(X4)-----------|
G|------------------------------------------------------|
D|------------------------------------------------------|
A|------------------------------------------------------|
D|------------------------------------------------------|

E|-17(X12)----------------------------------------------|
B|--------18(X5)17(X3)-15(x3)---------------------------|
G|-------------------------------17(X10)15(X6)18(X5)----|
D|------------------------------------------------------|
A|------------------------------------------------------|
D|------------------------------------------------------|

(VERSE)

BREAKDOWN1:X2
E|---------------------------------|
B|---------------------------------|
G|---------------------------------|
D|-00000000-0-5b-0-00000000-00-00--|
A|-00000000-0-5b-0-00000000-00-00--|
D|-00000000-0-5b-0-00000000-00-00--|

(CHORUS)

BRIDGE:
Guitar1:(Strum)
E|------------------------------|
B|------------------------------|
G|------------------------------|
D|-0---------------------3------|
A|-0(X18)----------------3(x15)-|
D|-0---------------------3------|
Guitar2:
E|-----------------------17-17-17---------------------------------|
B|--------------------------------18-18-18-15-15-15-171717181718--|
G|---------------781010-------------------------------------------|
D|-----57810-7810-------------------------------------------------|
A|-578------------------------------------------------------------|
D|----------------------------------------------------------------|

Guitar1:(Strum)
E|------------------------------|
B|------------------------------|
G|------------------------------|
D|-5---------------------8------|
A|-5(X17)----------------8(X18)-|
D|-5---------------------8------|
Guitar2:
E|----------------------------------------------------------------|
B|----------------------------------------------------------------|
G|--------------781010---578 7910 356356 578 7910 356356----------|
D|----57810-7810--------------------------------------------------|
A|-578------------------------------------------------------------|
D|----------------------------------------------------------------|

INTERLUDE:
PART1:
Guitar1:X2
E|---------------------------------------|
B|---------------------------------------|
G|---------------------------------------|
D|-0~------------------------------------|
A|-0~------------------------------------|
D|-0~------------------------------------|
Guitar2:X2
E|---------------------------------------|
B|---8-10-11--11-10-8--8-10-11--11-10-8--|
G|--7----------------7-------------------|
D|---------------------------------------|
A|---------------------------------------|
D|---------------------------------------|

PART2:
Guitar1:
E|------------------------------------------------------------|
B|------------------------------------------------------------|
G|------------------------------------------------------------|
D|-8888888888888888-----------5555555555555555----------------|
A|-8888888888888888-----------5555555555555555----------------|
D|-8888888888888888-----------5555555555555555----------------|
   ****************           ****************
Guitar2:X2
E|------------------------------------------------------------|
B|-------8-10-11111111-1010-88------8-10-11111111-1010-88-----|
G|-777777---------------------777777--------------------------|
D|------------------------------------------------------------|
A|------------------------------------------------------------|
D|------------------------------------------------------------|
   ******* * * * * * * * *  ********* *  * * * *  * *  **

(INTERLUDE:PART1)

BREAKDOWN2:X4
E|-----------------------|
B|-----------------------|
G|-----------------------|
D|-000000-8b--000-000----|
A|-000000-12b-000-000----|
D|-000000-----000-000----|
   ******     *** ***

PRE-CHORUS:
E|-----------------------------------|
B|-----------------------------------|
G|-5-55-5-55-5-55--3-33--5-55--7-77~-|
D|-5-55-5-55-5-55--3-33--5-55--7-77~-|
A|-3-33-3-33-3-33--1-11--3-33--5-55~-|
D|-----------------------------------|

(CHORUS):
(BRIDGE):
(INTRO):
(BREAKDOWN1):X2

ENDING:
E|------------------------------------------|
B|------------------------------------------|
G|------------------------------------------|
D|-00000000---------------------------------|
A|-00000000-8b-8b-8b-8b-8b-8b-8b-8b-8b-8b---|
D|-00000000-12b12b12b12b12b12b12b12b12b12b--|
   ********                         

            
            
Suggest correction
Creating personal tab
Creating personal tab
You can edit any tab online and save it as your Personal.

You can edit, replace or remove any tab part or add personal notes – all changes will be seen only by you.

Personal tabs can be accessed anytime from any device, even offline.
Learn more »
Give kudos to tab author, rate the tab!
1 2 3 4 5
comments
print report bad tab
2 comments total.
0 reply
carr4600 41 Jul 11, 2010 02:16 PM

This is great.
Did you just put this up because I dont remember seeing this last week?

+1 reply
Vexaus 10 Apr 27, 2011 03:45 PM

the intro is very close
the 0's are x's until the distortion kicks in
E|---------------13//------------------------------------------|
B|---------------17//------------------------------------------|
G|-----14------------------------9----9------------------------|
D|-xxx-12------------------------7----7------------------------|
A|-xxx-13---------------------88-8-88-8------------------------|
D|-xxx----7p0-8p0---0-3p03p0-----------------------------------|

guest
You may want to rate the tab now too:
select rating
Wanna post a correction for this tab? Suggest correction