Oops, an error
Loading. Please wait.
103 views 3 this week
no commentswrite comment
1 2 3 4 5
3 more votes to show rating
add to favorites
×
Save as Personal and add changes to this tab that will be seen only by you. Learn more ›
×
You can save this tab as Personal to edit and correct it or add notes. All changes will be seen only by you. Learn more »
launch autoscroll
font size
0
reset
transpose
0
reset
display chords
guitar tuner
edit
Autoscroll
slow
fast
+/-
esc
set tempo
stop
Strumming Are these strumming patterns correct? Yes No
Verse 1 132 bpm
1
&
2
&
3
&
4
&
5
&
6
&
7
&
8
&
Listen
Verse 2 160 bpm
1
&
2
&
3
&
4
&
Listen
Verse 3 160 bpm
1
&
2
&
3
&
4
&
Listen
[Verse 1]
A         E       C#m    B
  Can you tell my car is gone?
A         E        C#m    B
  All day long, my car is gone
A           E        C#m    B
  Can you tell we're taking all
A        E  C#m             B
  Advice on how to leave marks?
A            E      C#m        B
  We keep ourselves in the dark
A          E    C#m        B
  I kept myself in the dark
A          E    C#m        B
  I kept myself in the dark

A E C#m B (x3)

A          E    C#m        B
  I kept myself in the dark

e|-------------------|------------------|
B|----------0--------|------------------|
G|---1----------1----|-----1-------1----|
D|-2---4p2-----------|-4-------4--------| (x2)
A|-------------------|------------------|
E|-------------------|------------------|

e|-------------------|------------------|
B|----------0--------|------------------|
G|---1----------1----|------------------|
D|-2---4p2-----------|-4~------4~-------| (x2)
A|-------------------|------------------|
E|-------------------|------------------|

[Verse 2]

A                      C#m            B
  Yesterday you got so close to a tree that you could climb it
A
  On this side, there's a positive message
C#m                     B
  In the middle, we're completely unsure
A             E
  I was holding on (I was holding on)
C#m          B
  I begged myself (I begged myself)
A                   E
  Today we swept it all up
C#m                        B
  Tonight we'll spill some more

[Verse 3]
A      E            C#m       B
  Open up the window, let the morning light in
A        E           C#m      B
  I keep holding onto, I keep begging myself
E   B                C#m          A                     E
  Today we are superheroes, but tonight we'll just be tired
       B           C#m      A
I keep holding onto, I keep begging myself

C#m B A (x4)

e|---------|---------|--------|----------|
B|-------0-|-2-0-----|--------|----------|
G|-----1---|-----1---|-2~-----|-1~-------|
D|-2-4-----|-------2-|--------|----------| (x5)
A|---------|---------|--------|----------|
E|---------|---------|--------|----------|
    A
| p  pull off
| ~  vibrato

            
            
Suggest correction
Creating personal tab
Creating personal tab
You can edit any tab online and save it as your Personal.

You can edit, replace or remove any tab part or add personal notes – all changes will be seen only by you.

Personal tabs can be accessed anytime from any device, even offline.
Learn more »
Give kudos to tab author, rate the tab!
1 2 3 4 5
comments
print report bad tab
guest
You may want to rate the tab now too:
select rating
Wanna post a correction for this tab? Suggest correction