Oops, an error
Loading. Please wait.

Favorite Liar tab

version 1
version 1

Whole song

4,759 views 90 this week
no commentswrite comment
1 2 3 4 5
x 8
add to favorites
×
Save as Personal and add changes to this tab that will be seen only by you. Learn more ›
×
You can save this tab as Personal to edit and correct it or add notes. All changes will be seen only by you. Learn more »
launch autoscroll
font size
0
reset
how to read this tab
guitar tuner
edit
Autoscroll
slow
fast
+/-
esc
set tempo
stop
Author
Difficulty
                                 /// Favorite Liar by The Wrecks ///

Tabbed by Izach Prince Paul
Enjoy Guys.

[Intro]

[Lead Guitar]
e|--------------------|
B|----------7---5-----|
G|------6-------------|
D|----7---7---7---7---| x7
A|--0-----------------|
E|--------------------|

e|--------------0------|
B|----------0h5---5----|
G|------6-----------6--|
D|----7---7------------| x2
A|--5------------------|
E|---------------------|

e|--------------------|
B|----------7---5-----|
G|------6-------------|
D|----7---7---7---7---| x1
A|--0-----------------|
E|--------------------|

e|--------------------|
B|------------5-------|
G|------6-----6-------|
D|----7---7---7-------| 
A|--0-----------------|
E|--------------------|


[Verse 1]

[Lead Guitar]
e|--------------------|
B|----------7---5-----|
G|------6-------------|
D|----7---7---7---7---| x3
A|--0-----------------|
E|--------------------|

e|--------------0------|
B|----------0h5---5----|
G|------6-----------6--|
D|----7---7------------| x2
A|--5------------------|
E|---------------------|

e|--------------------|
B|----------7---5-----|
G|------6-------------|
D|----7---7---7---7---| x2
A|--0-----------------|
E|--------------------|

e|----------------------------------------|
B|------------5-------------5-------------|
G|--6-4-6-4-6---6-6-4-6-4-6---6--4-6-6-4--|
D|----------------------------------------| x1
A|----------------------------------------|
E|----------------------------------------|

e|---------------------------------------------|
B|--10-7----10-7----10-7----7-10-12~----14-12--|
G|-------9-------9-------9---------------------|
D|---------------------------------------------| x1
A|---------------------------------------------|
E|---------------------------------------------|

[Rhythm Guitar] 
    A
e|-----|
B|--5--|
G|--6--| Just keep strumming this chord between (Time 0:24 - 0:39).
D|--7--| 
A|-----|
E|-----|

    D
e|-----|
B|-----|
G|--7--| (Time 0:40 - 0:43)
D|--7--| 
A|--5--|
E|-----|

    A
e|-----|
B|-----|
G|-----| (Time 0:44 - 0:47) 
D|--7--| 
A|--7--|
E|--5--|

    D
e|-----|
B|-----|
G|--7--| (Time 0:48 - 0:51)
D|--7--| 
A|--5--|
E|-----|

    E
e|-----|
B|-----|
G|--9--| (Time 0:52 - 0:54)
D|--9--| 
A|--7--|
E|-----|

[Chorus 1]

[Lead Guitar]
e|---------------------------------------|
B|--12-10-12-14-12-10-12--10------10-----|
G|---------------------------11-9----11--|
D|---------------------------------------| x1
A|---------------------------------------|
E|---------------------------------------|

e|------------------------------|
B|--------5-7-------------------|
G|--6-6-6-----6-6-6-4-2---------|
D|----------------------4---2~--| x1
A|------------------------------|
E|------------------------------|

[Rhythm Guitar]
    A
e|-----|
B|-----|
G|-----|  
D|--7--| 
A|--7--|
E|--5--|

    D
e|-----|
B|-----|
G|--7--| 
D|--7--| 
A|--5--|
E|-----|

    B
e|-----|
B|-----|
G|--4--| 
D|--4--| 
A|--2--|
E|-----|

    D
e|-----|
B|-----|
G|--7--| 
D|--7--| 
A|--5--|
E|-----|

[Interlude]

[Lead Guitar]
e|--------------------|
B|----------7---5-----|
G|------6-------------|
D|----7---7---7---7---| x4
A|--0-----------------|
E|--------------------|

[Rhythm Guitar]
    A
e|-----|
B|--5--|
G|--6--| Just keep strumming this chord.
D|--7--| 
A|-----|
E|-----|

[Verse 2]

[Lead Guitar]
e|--------------------|
B|----------7---5-----|
G|------6-------------|
D|----7---7---7---7---| x3
A|--0-----------------|
E|--------------------|

e|--------------0------|
B|----------0h5---5----|
G|------6-----------6--|
D|----7---7------------| x2
A|--5------------------|
E|---------------------|

e|--------------------|
B|----------7---5-----|
G|------6-------------|
D|----7---7---7---7---| x4
A|--0-----------------|
E|--------------------|

e|----------------------------------------|
B|------------5-------------5-------------|
G|--6-4-6-4-6---6-6-4-6-4-6---6--4-6-6-4--|
D|----------------------------------------| x1
A|----------------------------------------|
E|----------------------------------------|

e|---------------------------------------------|
B|--10-7----10-7----10-7----7-10-12~----14-12--|
G|-------9-------9-------9---------------------|
D|---------------------------------------------| x1
A|---------------------------------------------|
E|---------------------------------------------|

[Rhythm Guitar]
e|--------------------------------------------------------------------|
B|--------------------------------------------------------------------|
G|--------------------------------------------------------------------|
D|--------------------------------------------------------------------| x1 There are two notes that are not 
A|--------------------------------------------------------------------|    Palm Muted, listen carefully.
E|--\5--5--5--5--5--5--5--5--5--5--5--5--5--5--5--5--5--5--5--5--5--5-|
PM   -  -  -  -  -  -  -  -  -  -     -  -  -  -  -  -  -  -  -  -

    B   C#m  
e|-----------|
B|-----------|
G|--4-4-6-6--| 
D|--4-4-6-6--| This was the closest sound I could make out of it. (Time 1:26 - 1:28)
A|--2-2-4-4--|
E|-----------|

    D
e|-----|
B|-----|
G|--7--| 
D|--7--| 
A|--5--|
E|-----|

    A
e|-----|
B|-----|
G|-----|  
D|--7--| 
A|--7--|
E|--5--|

    D
e|-----|
B|-----|
G|--7--| 
D|--7--| 
A|--5--|
E|-----|

    A
e|-----|
B|-----|
G|-----|  
D|--7--| 
A|--7--|
E|--5--|

    D
e|-----|
B|-----|
G|--7--| 
D|--7--| 
A|--5--|
E|-----|

    E
e|-----|
B|-----|
G|--9--| 
D|--9--| 
A|--7--|
E|-----|

[Chorus 2]

[Lead Guitar]
e|---------------------------------------|
B|--12-10-12-14-12-10-12--10------10-----|
G|---------------------------11-9----11--|
D|---------------------------------------| x1
A|---------------------------------------|
E|---------------------------------------|

e|------------------------------|
B|--------5-7-------------------|
G|--6-6-6-----6-6-6-4-2---------|
D|----------------------4---2~--| x1
A|------------------------------|
E|------------------------------|

[Rhythm Guitar]
    A
e|-----|
B|-----|
G|-----|  
D|--7--| 
A|--7--|
E|--5--|

    D
e|-----|
B|-----|
G|--7--| 
D|--7--| 
A|--5--|
E|-----|

    B
e|-----|
B|-----|
G|--4--| 
D|--4--| 
A|--2--|
E|-----|

    D
e|-----|
B|-----|
G|--7--| 
D|--7--| 
A|--5--|
E|-----|

[Bridge]

[Lead Guitar]
e|----------------|
B|--10-7----------|
G|-------9-6------|
D|-----------9-7--| x20
A|----------------|
E|----------------|

[Rhythm Guitar]
e|----------------|
B|----------------|
G|----------------|
D|----------------| x2
A|----------------|
E|--5----5-5------|

    A    A A
e|------------|
B|------------|
G|------------|  
D|--7----7-7--| x2
A|--7----7-7--| 
E|--5----5-5--|

    D    D D
e|------------|
B|------------|
G|--7----7-7--|  
D|--7----7-7--| x1
A|--5----5-5--| 
E|------------|

    A    A A
e|------------|
B|------------|
G|------------|  
D|--7----7-7--| x1
A|--7----7-7--| 
E|--5----5-5--|

    A   
e|-----|
B|-----|
G|-----|  There is a certain pattern of strumming here (Time 2:32 - 2:39)
D|--7--| 
A|--7--| 
E|--5--|

    D
e|-----|
B|-----|
G|--7--| 
D|--7--| 
A|--5--|
E|-----|

    A   
e|-----|
B|-----|
G|-----|  
D|--7--| 
A|--7--| 
E|--5--|

[Pre-Chorus]

[Rhythm Guitar]
    D
e|-----|
B|-----|
G|--7--| 
D|--7--| 
A|--5--|
E|-----|

    A   
e|-----|
B|-----|
G|-----|  
D|--7--| 
A|--7--| 
E|--5--|

    D
e|-----|
B|-----|
G|--7--| 
D|--7--| 
A|--5--|
E|-----|

   Asus4
e|-----|
B|--3--|
G|--2--| 
D|-----| 
A|-----|
E|-----|

[Chorus 3]

[Lead Guitar]
e|---------------------------------------|
B|--12-10-12-14-12-10-12--10------10-----|
G|---------------------------11-9----11--|
D|---------------------------------------| x1
A|---------------------------------------|
E|---------------------------------------|

e|------------------------------|
B|--------5-7-------------------|
G|--6-6-6-----6-6-6-4-2---------|
D|----------------------4---2~--| x1
A|------------------------------|
E|------------------------------|

[Rhythm Guitar]
    A
e|-----|
B|-----|
G|-----|  
D|--7--| 
A|--7--|
E|--5--|

    D
e|-----|
B|-----|
G|--7--| 
D|--7--| 
A|--5--|
E|-----|

    B
e|-----|
B|-----|
G|--4--| 
D|--4--| 
A|--2--|
E|-----|

    D
e|-----|
B|-----|
G|--7--| 
D|--7--| 
A|--5--|
E|-----|

[Lead Guitar]
e|---------------------------------------|
B|--12-10-12-14-12-10-12--10------10-----|
G|---------------------------11-9----11--|
D|---------------------------------------| x1
A|---------------------------------------|
E|---------------------------------------|

e|------------------------------|
B|--------5-7-------------------|
G|--6-6-6-----6-6-6-4-2---------|
D|----------------------4---2~--| x1
A|------------------------------|
E|------------------------------|

[Rhythm Guitar]
    A
e|-----|
B|-----|
G|-----|  
D|--7--| 
A|--7--|
E|--5--|

    D
e|-----|
B|-----|
G|--7--| 
D|--7--| 
A|--5--|
E|-----|

    B
e|-----|
B|-----|
G|--4--| 
D|--4--| 
A|--2--|
E|-----|

    D
e|-----|
B|-----|
G|--7--| 
D|--7--| 
A|--5--|
E|-----|

    A
e|-----|
B|-----|
G|-----|  One last strum.
D|--7--| 
A|--7--|
E|--5--|

[Outro]

[Lead Guitar]
e|--------------------|
B|----------7---5-----|
G|------6-------------|
D|----7---7---7---7---| x7
A|--0-----------------|
E|--------------------|

e|--------------0--------|
B|----------0h5---5------|
G|------6-----------6----|
D|----7---7--------------| x2
A|--5-----------------0--|
E|-----------------------|


************************************

| h   Hammer-on
| \   Slide down
| ~   Vibrato
| PM  Palm mute

************************************

            
            
Suggest correction
Creating personal tab
Creating personal tab
You can edit any tab online and save it as your Personal.

You can edit, replace or remove any tab part or add personal notes – all changes will be seen only by you.

Personal tabs can be accessed anytime from any device, even offline.
Learn more »
comments
print report bad tab
guest
You may want to rate the tab now too:
select rating
Wanna post a correction for this tab? Suggest correction