Oops, an error
Loading. Please wait.

Faster Gun bass

28 views 6 this week
no commentswrite comment
1 2 3 4 5
2 more votes to show rating
add to favorites
×
Save as Personal and add changes to this tab that will be seen only by you. Learn more ›
×
You can save this tab as Personal to edit and correct it or add notes. All changes will be seen only by you. Learn more »
launch autoscroll
font size
0
reset
guitar tuner
edit
Autoscroll
slow
fast
+/-
esc
set tempo
stop
Author
Difficulty
Faster Gun - bass tab

Verse 1:

G|-------------------------------------------------------------------|
D|-------------------------------------------------------------------|
A|----------------------------------6-6-------------6-6-----6-6------|
E|--4-4-------------4-4----------------------------------------------|

G|-------------------------------------------------------------------|
D|-------------------------------------------------------------------|
A|----------------------------------6-6-------------6-6-----4-4------|
E|--6-6-------------6-6----------------------------------------------|

G|-------------------------------------------------------------------|
D|--------------------------------------5-6-6-5-6-5-----5-6-----5-6--|
A|------3-4-4-3-4-3-----3-4-4-3-4-3-6-6-------------6-6-----6-6------|
E|--4-4-------------4-4----------------------------------------------|

G|-------------------------------------------------------------------|
D|--------------------------------------5-6-6-5-6-5-----5-6-----5-6--|
A|------4-6-6-4-6-4-----4-6-6-4-6-4-6-6-------------6-6-----4-4------|
E|--6-6-------------6-6----------------------------------------------|

Pre-chorus:

G|-------------------------------------------------------------------|
D|-------------------------------------------------------------------|
A|------------------3-3-3-3-6-6-6-6-------------------------2-2-2-2--|
E|--4-4-4-4-6-6-6-6-----------------0-0-0-0-2-2-2-2-4-4-4-4----------|

G|-----------------------------------|
D|-----------------------------------|
A|--6-6-6-6---------6-6-6-6-7-7-7-7--|
E|----------6-6-6-6------------------|

Chorus:

G|-----------------------------------------------------------------|
D|-----------------------------------------------------------------|
A|--2-2-2-2-2-2-2-----------------4-4-4-4-4-4-4-4-0-0-0-0-0-0-0-0--|
E|----------------2-2-2-2-2-2-2-2----------------------------------|

G|---------------------------------------------------|
D|------6-6-----6-6-----4-4-----4-4-------3-4-3-4-3--|
A|----------------------------------4----------------|
E|--4-4-----4-4-----2-2-----2-2----------------------|

G|-------------------------------------------------------------------|
D|-------------------------------------------------------------------|
A|-------------------------------------------------------------------|
E|--4-4-4-4-4-4-4-4-4-4-4-4-4-4-4-4-4-4------------------------------|

Verse 2:


G|-------------------------------------------------------------------|
D|-------------------------------------------------------------------|
A|----------------------------------6-6-------------6-6-----6-6------|
E|--4-4-------------4-4----------------------------------------------|

G|-------------------------------------------------------------------|
D|-------------------------------------------------------------------|
A|----------------------------------6-6-------------6-6-----4-4------|
E|--6-6-------------6-6----------------------------------------------|

G|-------------------------------------------------------------------|
D|--------------------------------------5-6-6-5-6-5-----5-6-----5-6--|
A|------3-4-4-3-4-3-----3-4-4-3-4-3-6-6-------------6-6-----6-6------|
E|--4-4-------------4-4----------------------------------------------|

G|-------------------------------------------------------------------|
D|--------------------------------------5-6-6-5-6-5-----5-6-----5-6--|
A|------4-6-6-4-6-4-----4-6-6-4-6-4-6-6-------------6-6-----4-4------|
E|--6-6-------------6-6----------------------------------------------|

Pre-chorus:

G|-------------------------------------------------------------------|
D|-------------------------------------------------------------------|
A|------------------3-3-3-3-6-6-6-6-------------------------2-2-2-2--|
E|--4-4-4-4-6-6-6-6-----------------0-0-0-0-2-2-2-2-4-4-4-4----------|

G|-----------------------------------|
D|-----------------------------------|
A|--6-6-6-6---------6-6-6-6-7-7-7-7--|
E|----------6-6-6-6------------------|

Chorus:

G|-----------------------------------------------------------------|
D|-----------------------------------------------------------------|
A|--2-2-2-2-2-2-2-----------------4-4-4-4-4-4-4-4-0-0-0-0-0-0-0-0--|
E|----------------2-2-2-2-2-2-2-2----------------------------------|

G|---------------------------------------------------|
D|------6-6-----6-6-----4-4-----4-4-------3-4-3-4-3--|
A|----------------------------------4----------------|
E|--4-4-----4-4-----2-2-----2-2----------------------|

G|-----------------------------------------------------------------|
D|-----------------------------------------------------------------|
A|--2-2-2-2-2-2-2-----------------4-4-4-4-4-4-4-4-0-0-0-0-0-0-0-0--|
E|----------------2-2-2-2-2-2-2-2----------------------------------|

G|---------------------------------------------------|
D|------6-6-----6-6-----4-4-----4-4-------3-4-3-4-3--|
A|----------------------------------4----------------|
E|--4-4-----4-4-----2-2-----2-2----------------------|

Bridge:

G|-------------------------------------------------------------------|
D|-------------------------------------------------------------------|
A|--2-2-2-2-2-2-2-2-2-2-2-2-2-2-2-2----------------------------------|
E|----------------------------------0-0-0-0-0-0-0-0-0-0-0-0-0-0-0-0--|

G|-------------------------------------------------------------------|
D|-------------------------------------------------------------------|
A|-------------------------------------------------------------------|
E|--2-2-2-2-2-2-2-2-2-2-2-2-2-2-2-2-4-4-4-4-4-4-4-4-4-4-4-4-4-4-4-4--|

G|-------------------------------------------------------------------|
D|-------------------------------------------------------------------|
A|--2-2-2-2-2-2-2-2-2-2-2-2-2-2-2-2----------------------------------|
E|----------------------------------0-0-0-0-0-0-0-0-0-0-0-0-0-0-0-0--|

G|-------------------------------------------------------------------|
D|-------------------------------------------------------------------|
A|-------------------------------------------------------------------|
E|--4-4-4-4-4-4-4-4-4-4-4-4-4-4-4-4-4-4------------------------------|

Pre-chorus:

G|-------------------------------------------------------------------|
D|-------------------------------------------------------------------|
A|------------------3-3-3-3-6-6-6-6-------------------------2-2-2-2--|
E|--4-4-4-4-6-6-6-6-----------------0-0-0-0-2-2-2-2-4-4-4-4----------|

G|-----------------------------------|
D|-----------------------------------|
A|--6-6-6-6---------6-6-6-6-7-7-7-7--|
E|----------6-6-6-6------------------|

Final chorus:

(Use fuzz and wah on this part)

G|-----------------------------------------------------------------|
D|----------------------3-4-3-4-3-----------------------3-4-3-4-3--|
A|--2-----------------------------4---------------0----------------|
E|----------------2------------------------------------------------|

G|---------------------------------------------------|
D|----------------------------------------3-4-3-4-3--|
A|----------------------------------4----------------|
E|--4---4-----------2---2----------------------------|

G|-----------------------------------------------------------------|
D|----------------------3-4-3-4-3-----------------------3-4-3-4-3--|
A|--2-----------------------------4---------------0----------------|
E|----------------2------------------------------------------------|

G|---------------------------------------------------|
D|----------------------------------------3-4-3-4-3--|
A|----------------------------------4----------------|
E|--4---4-----------2---2----------------------------|

G|-----------------------------------------------------------------|
D|-----------------------------------------------------------------|
A|--2-2-2-2-2-2-2-----------------4-4-4-4-4-4-4-4-0-0-0-0-0-0-0-0--|
E|----------------2-2-2-2-2-2-2-2----------------------------------|

G|---------------------------------------------------|
D|------6-6-----6-6-----4-4-----4-4-------3-4-3-4-3--|
A|----------------------------------4----------------|
E|--4-4-----4-4-----2-2-----2-2----------------------|

G|-----------------------------------------------------------------|
D|-----------------------------------------------------------------|
A|--2-2-2-2-2-2-2-----------------4-4-4-4-4-4-4-4-0-0-0-0-0-0-0-0--|
E|----------------2-2-2-2-2-2-2-2----------------------------------|

G|---------------------------------------------------|
D|------6-6-----6-6-----4-4-----4-4-------3-4-3-4-3--|
A|----------------------------------4----------------|
E|--4-4-----4-4-----2-2-----2-2----------------------|

G|-------------------------------------------------------|
D|-------------------------------------------------------|
A|-------------------------------------------------------|
E|--4-4-4-4-4-4-4-4-4-4-4-4-4-4-4-4-4-4-4-4-4-4-4-4-4-4--|




            
            
Suggest correction
Creating personal tab
Creating personal tab
You can edit any tab online and save it as your Personal.

You can edit, replace or remove any tab part or add personal notes – all changes will be seen only by you.

Personal tabs can be accessed anytime from any device, even offline.
Learn more »
Give kudos to tab author, rate the tab!
1 2 3 4 5
comments
print report bad tab
guest
You may want to rate the tab now too:
select rating
Wanna post a correction for this tab? Suggest correction