Oops, an error
Loading. Please wait.

I Married Sonja tab

16 views 1 this week
no commentswrite comment
1 2 3 4 5
3 more votes to show rating
add to favorites
×
Save as Personal and add changes to this tab that will be seen only by you. Learn more ›
×
You can save this tab as Personal to edit and correct it or add notes. All changes will be seen only by you. Learn more »
launch autoscroll
font size
0
reset
how to read this tab
guitar tuner
edit
Autoscroll
slow
fast
+/-
esc
set tempo
stop
[Verse 1]
Guitar 1:
e|------------------------|
B|------------------------|
G|--------5b-5b-5b-5b-5b--|
D|--------5b-5b-5b-5b-5b--|
A|--------3b-3b-3b-3b-3b--|
E|------------------------|

e|----------------------------------------------------------------------------------------------------------|
B|--10-10-10-10-10-10-10-10-11-11-11-11-11-11-11-11-10-10-10-10-10-10-10-10-11-11-11-11-11-11-11-11-10\\\\--|
G|--12-12-12-12-12-12-12-12-12-12-12-12-12-12-12-12-12-12-12-12-12-12-12-12-12-12-12-12-12-12-12-12-12\\\\--|
D|----------------------------------------------------------------------------------------------------------|
A|----------------------------------------------------------------------------------------------------------|
E|----------------------------------------------------------------------------------------------------------|

e|--------------------------|
B|--------------------------|
G|----5b-5b-5b-4b-4b-4b-4b--|
D|----5b-5b-5b-4b-4b-4b-4b--|
A|----3b-3b-3b-2b-2b-2b-2b--|
E|--------------------------|

e|---------------------------------------------------------------------------------------------------|
B|--10-10-10-10-10-10-10-10-11-11-11-11-11-11-11-11-10-10-10-10-10-10-10-10-11-11-11-11-11-11-11-11--|
G|--12-12-12-12-12-12-12-12-12-12-12-12-12-12-12-12-12-12-12-12-12-12-12-12-12-12-12-12-12-12-12-12--|
D|---------------------------------------------------------------------------------------------------|
A|---------------------------------------------------------------------------------------------------|x2 
E|---------------------------------------------------------------------------------------------------|

Guitar 2:
e|------17b-17b-17b-17b-17b-17b--|
B|------16b-16b-16b-16b-16b-16b--|
G|------15b-15b-15b-15b-15b-15b--|
D|-------------------------------|
A|-------------------------------|
E|-------------------------------|

e|-------------------------------------------------------------------------------------------------------|
B|--13-13-13-13-13-13-13-13-13-13-13-13-13-13-13-13-11-11-11-11-10-10-10-10-13-13-13-13-13-13-13-13-13~--|
G|--10-10-10-10-10-10-10-10-10-10-10-10-10-10-10-10-10-10-10-10-10-10-10-10-10-10-10-10-9--9--9--9--10~--|
D|-------------------------------------------------------------------------------------------------------|
A|-------------------------------------------------------------------------------------------------------|
E|-------------------------------------------------------------------------------------------------------|

e|------17b-17b-17b-17b-17b-17b--|
B|------16b-16b-16b-16b-16b-16b--|
G|------15b-15b-15b-15b-15b-15b--|
D|-------------------------------|
A|-------------------------------|
E|-------------------------------|

e|---------------------------------------------------------------------------------------------------|
B|--13-13-13-13-13-13-13-13-13-13-13-13-13-13-13-13-11-11-11-11-10-10-10-10-13-13-13-13-13-13-13-13--|
G|--10-10-10-10-10-10-10-10-10-10-10-10-10-10-10-10-10-10-10-10-10-10-10-10-10-10-10-10-9--9--9--9---|
D|---------------------------------------------------------------------------------------------------|
A|---------------------------------------------------------------------------------------------------|x2
E|---------------------------------------------------------------------------------------------------|
    ^enter guitar 3

Guitar 3:
e|-------------------------------------------------------------------------------------------|
B|--8--8--8--8--8--8--8--8--8--8--8--8--8--8--8--8--8--8--8--8--8--8--8--8----6-6-6-6-6-6-6--|
G|--10-10-10-10-10-10-10-10-10-10-10-10-10-10-10-10-10-10-10-10-10-10-10-10---9-9-9-9-9-9-9--|
D|-------------------------------------------------------------------------------------------|
A|-------------------------------------------------------------------------------------------|
E|-------------------------------------------------------------------------------------------|

e|-------------------------------------------------------------------|
B|----6---6-6-6-6-6-6-6-6-6-6-6-6-6-6-6-6-6-6-6-6-6-6-6-6-6-6-6-6-6--|
G|--9---9---9-9-9-9-9-9-9-9-9-9-9-9-9-9-9-9-9-9-9-9-9-9-9-9-9-9-9-9--|
D|-------------------------------------------------------------------|
A|-------------------------------------------------------------------|
E|-------------------------------------------------------------------|

[Chorus 1]
Guitar 1:
e|------------------------------------------------|
B|-----10----10----10----10------11--------11-----|
G|--12----12----12----12----12--------12----------|
D|------------------------------------------------|
A|------------------------------------------------|x3
E|------------------------------------------------|

Guitar 2:
e|---------------------------------------------------------------------------------------------------|
B|---------------------------------------------------------------------------------------------------|
G|--3-3-3-3-3-3-3-3-----------------2-2-2-2-4-4-4-4---5-5-5-5-5-5-5-8-8-8-8-8-8-8-8---5-5-5-5-5-5-5--|
D|--3-3-3-3-3-3-3-3---5-5-5-5-5-5-5-2-2-2-2-4-4-4-4---5-5-5-5-5-5-5-8-8-8-8-8-8-8-8---5-5-5-5-5-5-5--|
A|--1-1-1-1-0-0-0-0---5-5-5-5-5-5-5-0-0-0-0-2-2-2-2---3-3-3-3-3-3-3-6-6-6-6-5-5-5-5---3-3-3-3-3-3-3--|
E|--------------------3-3-3-3-3-3-3------------------------------------------------------------------|

[Verse 2]
Guitar 1:
e|---17b-17b-17b---17b---17b--|
B|---16b-16b-16b---16b---16b--|
G|---15b-15b-15b---15b---15b--|
D|----------------------------|
A|----------------------------|
E|----------------------------|

e|---------------------------------------------------------------------------------------------------|
B|--10-10-10-10-10-10-10-10-11-11-11-11-11-11-11-11-10-10-10-10-10-10-10-10-11-11-11-11-11-11-11-11--|
G|--12-12-12-12-12-12-12-12-12-12-12-12-12-12-12-12-12-12-12-12-12-12-12-12-12-12-12-12-12-12-12-12--|
D|---------------------------------------------------------------------------------------------------|
A|---------------------------------------------------------------------------------------------------|x2 
E|---------------------------------------------------------------------------------------------------|

Guitar 2:
e|------17b-17b---17b---17b--|
B|------16b-16b---16b---16b--|
G|------15b-15b---15b---15b--|
D|---------------------------|
A|---------------------------|
E|---------------------------|

e|---------------------------------------------------------------------------------------------------|
B|--13-13-13-13-13-13-13-13-13-13-13-13-13-13-13-13-11-11-11-11-10-10-10-10-13-13-13-13-13-13-13-13--|
G|--10-10-10-10-10-10-10-10-10-10-10-10-10-10-10-10-10-10-10-10-10-10-10-10-10-10-10-10-9--9--9--9---|
D|---------------------------------------------------------------------------------------------------|
A|---------------------------------------------------------------------------------------------------|x2
E|---------------------------------------------------------------------------------------------------|

e|--------------------------------------------------------17b-17b---17b-17b-17b--|
B|--13~--------------13~----------------------------------16b-16b---16b-16b-16b--|
G|--10~--------------10~----------------------------------15b-15b---15b-15b-15b--|
D|-------------------------------------------------------------------------------|
A|-------------------------------------------------------------------------------|
E|-------------------------------------------------------------------------------|

Guitar 3:
e|-------------------------------------------------------------------------------------------|
B|--8--8--8--8--8--8--8--8--8--8--8--8--8--8--8--8--8--8--8--8--8--8--8--8--6-6-6-6-6-6-6-6--|
G|--10-10-10-10-10-10-10-10-10-10-10-10-10-10-10-10-10-10-10-10-10-10-10-10-9-9-9-9-9-9-9-9--|
D|-------------------------------------------------------------------------------------------|
A|-------------------------------------------------------------------------------------------|
E|-------------------------------------------------------------------------------------------|

e|----------------------------------------------------------------------------------|
B|--8----8----8--8--8----8----8----8--8--8----8----8----8--8--8------6-6-6---6-6-6--|
G|--10---10---10-10-10---10---10---10-10-10---10---10---10-10-10-----9-9-9---9-9-9--|
D|----------------------------------------------------------------------------------|
A|----------------------------------------------------------------------------------|
E|----------------------------------------------------------------------------------|

[Chorus 2]
Guitar 1:
e|------------------------------------------------|
B|-----10----10----10----10------11--------11-----|
G|--12----12----12----12----12--------12----------|
D|------------------------------------------------|
A|------------------------------------------------|x6
E|------------------------------------------------|

Guitar 2:
e|---------------------------------------------------------------------------------------------------|
B|---------------------------------------------------------------------------------------------------|
G|--3-3-3-3-3-3-3-3-----------------2-2-2-2-4-4-4-4---5-5-5-5-5-5-5-8-8-8-8-8-8-8-8---5-5-5-5-5-5-5--|
D|--3-3-3-3-3-3-3-3---5-5-5-5-5-5-5-2-2-2-2-4-4-4-4---5-5-5-5-5-5-5-8-8-8-8-8-8-8-8---5-5-5-5-5-5-5--|
A|--1-1-1-1-0-0-0-0---5-5-5-5-5-5-5-0-0-0-0-2-2-2-2---3-3-3-3-3-3-3-6-6-6-6-5-5-5-5---3-3-3-3-3-3-3--|x2
E|--------------------3-3-3-3-3-3-3------------------------------------------------------------------|

[Bridge]
Guitar 1:
e|------------------------------------------------------------------------------------------3-3-3----|
B|--------------------------------------------------------------------------------------0---4-4-4----|
G|--------------------------------------------------------------------------------------0---5-5-5----|
D|--8---8---8---8---8---8---8---8---5---5---5---5---5---5---5-------6-6-6-6-6-6-6-6-5-5-0---5-5-5----|
A|----8---8---8---8---8---8---8---8---5---5---5---5---7---7---7-5h6-6-6-6-6-6-6-6-6-6-6-----3-3-3----|
E|---------------------------------------------------------------------------------------------------|

Guitar 2:
e|-----------------------------------------------------------------------------------------------------------|
B|-----------------------------------------------------------------------------------------------------------|
G|------8-----8---8-----7-----7---7\-----3-----3---3-----5-------5-------5-------5-----5b-5b-5b-5b-5b-5b-5b--|
D|--8-------8---8---8-------8---8----5-------5---5---5-5-----5-5-----6-------6-6-------5b-5b-5b-5b-5b-5b-5b--|
A|-----------------------------------------------------------------------------------------------------------|
E|-----------------------------------------------------------------------------------------------------------|

[Chorus 3]
Guitar 1:
e|------------------------------------------------|
B|-----10----10----10----10------11--------11-----|
G|--12----12----12----12----12--------12----------|
D|------------------------------------------------|
A|------------------------------------------------|x2
E|------------------------------------------------|

Guitar 2:
e|-------------------------------------------------------------------|
B|-------------------------------------------------------------------|
G|--3-3-3-3-3-3-3-3-----------------2-2-2-2-4-4-4-4---5-5-5-5-5-5-5--|
D|--3-3-3-3-3-3-3-3---5-5-5-5-5-5-5-2-2-2-2-4-4-4-4---5-5-5-5-5-5-5--|
A|--1-1-1-1-0-0-0-0---5-5-5-5-5-5-5-0-0-0-0-2-2-2-2---3-3-3-3-3-3-3--|
E|--------------------3-3-3-3-3-3-3----------------------------------|

[Break]
Guitar 1:
e|---------------------------------------------------------------------------------------------------|
B|--10-10-10-10-10-10-10-10-11-11-11-11-11-11-11-11-10-10-10-10-10-10-10-10-11-11-11-11-11-11-11-11--|
G|--12-12-12-12-12-12-12-12-12-12-12-12-12-12-12-12-12-12-12-12-12-12-12-12-12-12-12-12-12-12-12-12--|
D|---------------------------------------------------------------------------------------------------|
A|---------------------------------------------------------------------------------------------------|
E|---------------------------------------------------------------------------------------------------|

e|---------------------------------------------------|
B|--10-10-10-10-10-10-10-10-11-11-11-11-11-11-11-11--|
G|--12-12-12-12-12-12-12-12-12-12-12-12-12-12-12-12--|
D|---------------------------------------------------|
A|---------------------------------------------------|
E|---------------------------------------------------|

Guitar 2:
e|---------------------------------------------------------------------------------------------------|
B|--13-13-13-13-13-13-13-13-13-13-13-13-13-13-13-13-11-11-11-11-10-10-10-10-13-13-13-13-13-13-13-13--|
G|--10-10-10-10-10-10-10-10-10-10-10-10-10-10-10-10-10-10-10-10-10-10-10-10-10-10-10-10-9--9--9--9---|
D|---------------------------------------------------------------------------------------------------|
A|---------------------------------------------------------------------------------------------------|
E|---------------------------------------------------------------------------------------------------|

e|---------------------------------------------------|
B|--13-13-13-13-13-13-13-13-13-13-13-13-13-13-13-13--|
G|--10-10-10-10-10-10-10-10-10-10-10-10-10-10-10-10--|
D|---------------------------------------------------|
A|---------------------------------------------------|
E|---------------------------------------------------|

Guitar 3:
e|---------------------------------------------------------------------------------------|
B|--8--8--8--8--8--8--8--8--8--8--8--8--8--8--8--8--8--8--8--8--6-6-6-6-6-6-6-6-6-6-6-6--|
G|--10-10-10-10-10-10-10-10-10-10-10-10-10-10-10-10-10-10-10-10-9-9-9-9-9-9-9-9-9-9-9-9--|
D|---------------------------------------------------------------------------------------|
A|---------------------------------------------------------------------------------------|
E|---------------------------------------------------------------------------------------|

e|---------------------------------------|
B|--6-6-6-6-6--6--6--6--6-6-6-6-6-6-6-6--|
G|--9-9-9-9-9b-9b-9b-9b-9-9-9-9-9-9-9-9--|
D|---------------------------------------|
A|---------------------------------------|
E|---------------------------------------|

[Chorus 4]
Guitar 1:
e|------------------------------------------------|
B|-----10----10----10----10------11--------11-----|
G|--12----12----12----12----12--------12----------|
D|------------------------------------------------|
A|------------------------------------------------|x2
E|------------------------------------------------|

e|-------------------------------------------------------------------------------------------------|
B|-----10----10----10----10----10----10----10----10----11----11----11----11----11----11-8----8-----|
G|--12----12----12----12----12----12----12----12----12----12----12----12----12----12----10p9-9-----|
D|-------------------------------------------------------------------------------------------------|
A|-------------------------------------------------------------------------------------------------|
E|-------------------------------------------------------------------------------------------------|

e|------------------------------------------------|
B|-----10----10----10----10------11--------11-----|
G|--12----12----12----12----12--------12----------|
D|------------------------------------------------|
A|------------------------------------------------|x10
E|------------------------------------------------|

e|------------------------------------------------|
B|-----10----10----10----10-----------------------|
G|--12----12----12----12--------------------------|
D|------------------------------------------------|
A|------------------------------------------------|
E|------------------------------------------------|

Guitar 2:
e|---------------------------------------------------------------------------------------------------|
B|---------------------------------------------------------------------------------------------------|
G|--3-3-3-3-3-3-3-3-----------------2-2-2-2-4-4-4-4---5-5-5-5-5-5-5-8-8-8-8-8-8-8-8-8-8-8-8-8-8-8-8--|
D|--3-3-3-3-3-3-3-3---5-5-5-5-5-5-5-2-2-2-2-4-4-4-4---5-5-5-5-5-5-5-8-8-8-8-8-8-8-8-8-8-8-8-8-8-8-8--|
A|--1-1-1-1-0-0-0-0---5-5-5-5-5-5-5-0-0-0-0-2-2-2-2---3-3-3-3-3-3-3-6-6-6-6-5-5-5-5-5-6-6-6-6-6-6-6--|
E|--------------------3-3-3-3-3-3-3------------------------------------------------------------------|

e|-----------------------------------|
B|-----------------------------------|
G|--5-5-5-5-5-5-5-5-5-5-5-5-5-5-5-5--|
D|--5-5-5-5-5-5-5-5-5-5-5-5-5-5-5-5--|
A|--3-3-3-3-3-3-3-3-3-3-3-3-3-3-3-3--|
E|-----------------------------------|

                                                                            |- enter guitar 3
e|---------------------------------------------------------------------------------------------------|
B|---------------------------------------------------------------------------------------------------|
G|--3-3-3-3-3-3-3-3-----------------2-2-2-2-5-5-5-5-5-5-5-5-5-5-5-5-8-8-8-8-8-8-8-8---5-5-5-5-5-5-5--|
D|--3-3-3-3-3-3-3-3-5-5-5-5-5-5-5-5-2-2-2-2-5-5-5-5-5-5-5-5-5-5-5-5-8-8-8-8-8-8-8-8---5-5-5-5-5-5-5--|
A|--1-1-1-1-1-1-1-1-5-5-5-5-5-5-5-5-0-0-0-0-3-3-3-3-3-3-3-3-3-3-3-3-6-6-6-6-5-5-5-5---3-3-3-3-3-3-3--|
E|------------------3-3-3-3-3-3-3-3------------------------------------------------------------------|

e|--------------------------------------|
B|--------------------------------------|
G|--3-3-3-3-------------------------2~--|
D|--3-3-3-3-5-5-5-5---5-5-5-5-5-5-5-2~--|
A|--1-1-1-1-5-5-5-5---5-5-5-5-5-5-5-0~--|
E|----------3-3-3-3---3-3-3-3-3-3-3-----|

Guitar 3:
e|--18---20---18---20-----|
B|------------------------|
G|------------------------|
D|------------------------|
A|------------------------|x4
E|------------------------|

e|--18---20~--------------|
B|------------------------|
G|------------------------|
D|------------------------|
A|------------------------|
E|------------------------|

Guitar 4:
e|-----17------19~-------|
B|--17------17-----------|
G|-----------------------|
D|-----------------------|
A|-----------------------|x2
E|-----------------------|


************************************

| b  Bend
| \  Slide down
| ~  Vibrato
| h  Hammer-on
| p  Pull-off

************************************

            
            
Suggest correction
Creating personal tab
Creating personal tab
You can edit any tab online and save it as your Personal.

You can edit, replace or remove any tab part or add personal notes – all changes will be seen only by you.

Personal tabs can be accessed anytime from any device, even offline.
Learn more »
Give kudos to tab author, rate the tab!
1 2 3 4 5
comments
print report bad tab
guest
You may want to rate the tab now too:
select rating
Wanna post a correction for this tab? Suggest correction