Oops, an error
Loading. Please wait.

Jane Fakes A Hug tab

25 views 1 this week
no commentswrite comment
1 2 3 4 5
3 more votes to show rating
add to favorites
×
Save as Personal and add changes to this tab that will be seen only by you. Learn more ›
×
You can save this tab as Personal to edit and correct it or add notes. All changes will be seen only by you. Learn more »
launch autoscroll
font size
0
reset
how to read this tab
guitar tuner
edit
Autoscroll
slow
fast
+/-
esc
set tempo
stop
Jane Fakes a Hug - guitar tab

[Verse 1]
Guitar 1:
    A    E/G#  F#m   A/G    D    D/C#  Bm7   Bdim  Fdim   F#m    A/G 
e|--0-----0-----2-----2-----2-----2-----2-----1-----7------9------9------|
B|--2-----0-----2-----2-----3-----3-----3-----3-----9------10-----10-----|
G|--2-----1-----2-----2-----2-----2-----2-----4-----10-----11-----9------|
D|--2-----2-----4-----2-----0-----x-----4-----3-----9------11-----11-----|
A|--0-----2-----4-----x-----------4-----2------------------9------10-----|
E|--------4-----2-----3--------------------------------------------------|
                x     x
 
    D     D/C#  D/B    B7    Cdim   C#m   D     A    E/G#  F#m    D        
e|--10----10----10-----7-----8------4-----2-----0-----0-----2-----2-----|
B|--10----10----10-----7-----7------5-----3-----2-----0-----2-----3-----|
G|--11----11----11-----8-----8------6-----2-----2-----1-----2-----2-----|
D|--12----11----9------7-----10-----6-----0-----2-----2-----4-----0-----|
A|----------------------------------4-----------0-----2-----4-----------|
E|----------------------------------------------------4-----2-----------|

   C#m    E   Esus4   E
e|--4-----0-----0-----0-----|
B|--5-----0-----0-----0-----|
G|--6-----1-----2-----1-----|
D|--6-----2-----2-----2-----|
A|--4-----2-----2-----2-----|
E|--------0-----0-----0-----|

Guitar 2:
play same chords as guitar 1 except during 'x'
   F#m    A/G
e|--9------9------|
B|--10-----10-----|
G|--11-----9------|
D|--11-----11-----|
A|--9------10-----|
E|----------------|

[Verse 2]
Guitar 1:
    A    E/G#  F#m   A/G    D    D/C#  Bm7   Bdim  Fdim   F#m    A/G
e|--0-----0-----2-----2-----2-----2-----2-----1-----7------9------9------|
B|--2-----0-----2-----2-----3-----3-----3-----3-----9------10-----10-----|
G|--2-----1-----2-----2-----2-----2-----2-----4-----10-----11-----9------|
D|--2-----2-----4-----2-----0-----x-----4-----3-----9------11-----11-----|
A|--0-----2-----4-----x-----------4-----2------------------9------10-----|
E|--------4-----2-----3--------------------------------------------------|

    D     D/C#  D/B    B7   Cdim   C#m    D     A     E    F#m    D 
e|--10----10----10-----7-----11-----4-----2-----0-----0-----2-----2-----|
B|--10----10----10-----7-----13-----5-----3-----2-----0-----2-----3-----|
G|--11----11----11-----8-----11-----6-----2-----2-----1-----2-----2-----|
D|--12----11----9------7-----13-----6-----0-----2-----2-----4-----0-----|
A|----------------------------------4-----------0-----2-----4-----------|
E|----------------------------------------------------0-----2-----------|

   C#m    E    Esus4  E
e|--4-----0-----0-----0-----|
B|--5-----0-----0-----0-----|
G|--6-----1-----2-----1-----|
D|--6-----2-----2-----2-----|
A|--4-----2-----2-----2-----|
E|--------0-----0-----0-----|

Guitar 2 (use tremolo pedal): 
e|----------------------------------------------|
B|--10t---10t---8-t---9-t---9-t---10t---8-t-----|
G|--13t---12t---11t---10t---11t---12t---11t-----|
D|----------------------------------------------|
A|----------------------------------------------|
E|----------------------------------------------|

e|------------------------------|
B|--5t---5t---3t---5t---12t-----|
G|--8t---7t---6t---8t---13t-----|
D|------------------------------|
A|------------------------------|
E|------------------------------|

[Verse 3]
Guitar 1:
    A    E/G#  F#m   A#G    D    D/C#  Bm7   Bdim  Fdim   F#m    A/G
e|--0-----0-----2-----2-----2-----2-----2-----1-----7------9------9------|
B|--2-----0-----2-----2-----3-----3-----3-----3-----9------10-----10-----|
G|--2-----1-----2-----2-----2-----2-----2-----4-----10-----11-----9------|
D|--2-----2-----4-----2-----0-----x-----4-----3-----9------11-----11-----|
A|--0-----2-----4-----x-----------4-----2------------------9------10-----|
E|--------4-----2-----3--------------------------------------------------|

    D     D/C#  D/B    B7  Cdim    C#m    D     A    E/G#  F#m    D
e|--10----10----10-----7-----8------4-----2-----0-----0-----2-----2-----|
B|--10----10----10-----7-----7------5-----3-----2-----0-----2-----3-----|
G|--11----11----11-----8-----8------6-----2-----2-----1-----2-----2-----|
D|--12----11----9------7-----10-----6-----0-----2-----2-----4-----0-----|
A|----------------------------------4-----------0-----2-----4-----------|
E|----------------------------------------------------4-----2-----------|

   C#m    E   Esus4   E
e|--4-----0-----0-----0-----|
B|--5-----0-----0-----0-----|
G|--6-----1-----2-----1-----|
D|--6-----2-----2-----2-----|
A|--4-----2-----2-----2-----|
E|--------0-----0-----0-----|

Guitar 2:
e|------0-------------------------------0----------------------------|
B|----------3---2---0-----------------------3---2---0----------------|
G|----------------------2---1---2-----------------------2---1---2----|
D|-------------------------------------------------------------------|
A|-------------------------------------------------------------------|
E|-------------------------------------------------------------------|

e|------0-----------0-----------0-----------0-----------1---1---1h2-2----------------|
B|----------3-----------3-----------3-----------3------------------------------------|
G|--------------2-----------2-----------2--------------------------------------------|
D|-----------------------------------------------------------------------------------|
A|-----------------------------------------------------------------------------------|
E|-----------------------------------------------------------------------------------|

e|------3---3---3---2-----------------------0---3---2-------------------2---2---2/4--|
B|-----------------------------------------------------------------------------------|
G|-----------------------------------------------------------------------------------|
D|-----------------------------------------------------------------------------------|
A|-----------------------------------------------------------------------------------|
E|-----------------------------------------------------------------------------------|

e|--4-------------------0---0---7---5-----------0---9---7---5---4---9-----------0----|
B|-----------------------------------------------------------------------------------|
G|-----------------------------------------------------------------------------------|
D|-----------------------------------------------------------------------------------|
A|-----------------------------------------------------------------------------------|
E|-----------------------------------------------------------------------------------|

e|--9---7---5---4---4-----------0---9---7---5---4---4-----------0---9---7---9---7----|
B|-----------------------------------------------------------------------------------|
G|-----------------------------------------------------------------------------------|
D|-----------------------------------------------------------------------------------|
A|-----------------------------------------------------------------------------------|
E|-----------------------------------------------------------------------------------|

Guitar 3:
e|--17t---17t---15t---16t---16t---17t---15t-----|
B|--21t---20t---19t---18t---19t---20t---19t-----|
G|----------------------------------------------|
D|----------------------------------------------|
A|----------------------------------------------|
E|----------------------------------------------|

e|--------12t----12t---10t---12t---19t-----|
B|--14t---16t----15t---14t---16t---21t-----|
G|-----------------------------------------|
D|-----------------------------------------|
A|-----------------------------------------|
E|-----------------------------------------|

[Instrumental A]
Both guitars fade in as C#m plays from 3rd verse (the timing on this part is really weird and sloppy
- if I wasn't trying to be accurate, I'd just play one of these) 
Guitar 1:
e|-------------------------------------------------------------------|
B|-------------------------------------------------------------------|
G|------------------7-7-7-7-7-7-7-7-5-5-5-5-5-5-5-5-5-5-5-5-5-5-5-5--|
D|--5-5-5-5-5-5-5-5-7-7-7-7-7-7-7-7-5-5-5-5-5-5-5-5-5-5-5-5-5-5-5-5--|
A|--5-5-5-5-5-5-5-5-5-5-5-5-5-5-5-5-3-3-3-3-3-3-3-3-3-3-3-3-3-3-3-3--|x3
E|--3-3-3-3-3-3-3-3--------------------------------------------------|

Guitar 2:
e|--0---0---0---0---0---0---0---0---0---0-----|
B|--0---0---0---0---0---0---0---0---0---0-----|
G|--1---1---1---1---1---1---1---1---1---1-----|
D|--2---2---2---2---2---2---2---2---2---2-----|
A|--2---2---2---2---2---2---2---2---2---2-----|
E|--0---0---0---0---0---0---0---0---0---0-----|

e|--------------------------------------------------------------------------------------------|
B|--------------------------------------------------------------------------------------------|
G|----------------------------------7---7---7---7---7---7-------------------------------------|
D|--5---5---5---5---5---5---5---5---7---7---7---7---7---7---7---7---7---7---7---7---7---7-----|
A|--5---5---5---5---5---5---5---5---5---5---5---5---5---5---4---4---4---4---4---4---4---4-----|
E|--3---3---3---3---3---3---3---3---------------------------5---5---5---5---5---5---5---5-----|

e|----------------------------------------------------------------------------------------------------|
B|----------------------------------------------------------------------------------------------------|
G|----------------------------------7---7---7---7---7---7---7---7---5---4---4---4---4---4---4---4-----|
D|--5---5---5---5---5---5---5---5---7---7---7---7---7---7---7---7---5---5---5---5---5---5---5---5-----|
A|--5---5---5---5---5---5---5---5---5---5---5---5---5---5---5---5---3---3---3---3---3---3---3---3-----|
E|--3---3---3---3---3---3---3---3---------------------------------------------------------------------|

e|------------------------------------|
B|------------------------------------|
G|------------------------------------|
D|--7---7---7---7---7---7---7---7-----|
A|--4---4---4---4---4---4---4---4-----|
E|--5---5---5---5---5---5---5---5-----|

Play sloppily and occasionally hit open strings 

[Instrumental B]
Guitar 1:
e|------0-----------0-----------0-----------0-----------1---1---1h2-2----------------|
B|----------3-----------3-----------3-----------3------------------------------------|
G|--------------2-----------2-----------2--------------------------------------------|
D|-----------------------------------------------------------------------------------|
A|-----------------------------------------------------------------------------------|
E|-----------------------------------------------------------------------------------|

e|------3---3---5---5-----3-2-----------0---0---3p2-2-------------------2---2---4----|
B|-----------------------------------------------------------------------------------|
G|-----------------------------------------------------------------------------------|
D|-----------------------------------------------------------------------------------|
A|-----------------------------------------------------------------------------------|
E|-----------------------------------------------------------------------------------|

e|--4-------------------5---5---7---5-----------0---9---7---5---4-5-------------0----|
B|-----------------------------------------------------------------------------------|
G|-----------------------------------------------------------------------------------|
D|-----------------------------------------------------------------------------------|
A|-----------------------------------------------------------------------------------|
E|-----------------------------------------------------------------------------------|

e|--9---7---5--------|
B|-------------------|
G|-------------------|
D|-------------------|
A|-------------------|
E|-------------------|

Guitar 2:
    D    D/C#  Bm7   Bdim  Fdim   F#m    A/G
e|--2-----2-----2-----1-----7------9------9------|
B|--3-----3-----3-----3-----9------10-----10-----|
G|--2-----2-----2-----4-----10-----11-----9------|
D|--0-----x-----4-----3-----9------11-----11-----|
A|--------4-----2------------------9------10-----|
E|-----------------------------------------------|

    D     D/C#  D/B    B7   Cdim   C#m    D     A     E    F#m    D 
e|--10----10----10-----7-----8------4-----2-----0-----0-----2-----2-----|
B|--10----10----10-----7-----7------5-----3-----2-----0-----2-----3-----|
G|--11----11----11-----8-----8------6-----2-----2-----1-----2-----2-----|
D|--12----11----9------7-----10-----6-----0-----2-----2-----4-----0-----|
A|----------------------------------4-----------0-----2-----4-----------|
E|----------------------------------------------------0-----2-----------|

    C#m   E   Esus4   E 
e|--4-----0-----0-----0-----|
B|--5-----0-----0-----0-----|
G|--6-----1-----2-----1-----|
D|--6-----2-----2-----2-----|
A|--4-----2-----2-----2-----|
E|--------0-----0-----0-----|

[Outro]
Guitar 1:
e|--0-----0-x-x-x-x------------------|
B|--0-----0-x-x-x-x------------------|
G|--1-----1-x-x-x-x-7-7-7-6-x-x-x-x--|
D|--2-----2-x-x-x-x-x-x-x-x-x-x-x-x--|
A|--2-----2-x-x-x-x-x-x-x-x-x-x-x-x--|x4
E|--0-----0-x-x-x-x-8-8-8-7-x-x-x-x--|

e|--0-----0-x-x-x-x----------------|
B|--0-----0-x-x-x-x----------------|
G|--1-----1-x-x-x-x-7-7-7-6-x-x-x--|
D|--2-----2-x-x-x-x-x-x-x-x-x-x-x--|
A|--2-----2-x-x-x-x-x-x-x-x-x-x-x--|
E|--0-----0-x-x-x-x-8-8-8-7-x-x-x--|

e|--333-----3-x-x-x-555-----5-x-x-x--|
B|--333-----3-x-x-x-555-----5-x-x-x--|
G|--444-----4-x-x-x-666-----6-x-x-x--|
D|--555-----5-x-x-x-777-----7-x-x-x--|
A|--555-----5-x-x-x-777-----7-x-x-x--|
E|--333-----3-x-x-x-555-----5-x-x-x--|

e|--000-----0-x-x-x-x------------------|
B|--000-----0-x-x-x-x------------------|
G|--111-----1-x-x-x-x-7-7-7-6-x-x-x-x--|
D|--222-----2-x-x-x-x-x-x-x-x-x-x-x-x--|
A|--222-----2-x-x-x-x-x-x-x-x-x-x-x-x--|
E|--000-----0-x-x-x-x-8-8-8-7-x-x-x-x--|

Guitar 2:
e|--[5]-[5]-[5]-[5]-[5]-[5]-[5]-[5]-[9]-[9]-[9]-[9]-[9]-[9]-[9]-[9]--|
B|--[5]-[5]-[5]-[5]-[5]-[5]-[5]-[5]-[9]-[9]-[9]-[9]-[9]-[9]-[9]-[9]--|
G|--[5]-[5]-[5]-[5]-[5]-[5]-[5]-[5]-[9]-[9]-[9]-[9]-[9]-[9]-[9]-[9]--|
D|--[5]-[5]-[5]-[5]-[5]-[5]-[5]-[5]-[9]-[9]-[9]-[9]-[9]-[9]-[9]-[9]--|
A|--[5]-[5]-[5]-[5]-[5]-[5]-[5]-[5]-[9]-[9]-[9]-[9]-[9]-[9]-[9]-[9]--|x7
E|-------------------------------------------------------------------|

*************************
| / - slide up
| \ - slide down
| [] - natural harmonic 
| h - hammer on
| p - pull off
| t - tremolo pick 
*************************

            
            
Suggest correction
Creating personal tab
Creating personal tab
You can edit any tab online and save it as your Personal.

You can edit, replace or remove any tab part or add personal notes – all changes will be seen only by you.

Personal tabs can be accessed anytime from any device, even offline.
Learn more »
Give kudos to tab author, rate the tab!
1 2 3 4 5
comments
print report bad tab
guest
You may want to rate the tab now too:
select rating
Wanna post a correction for this tab? Suggest correction