Oops, an error
Loading. Please wait.

This Boy Is Exhausted chords

3,231 views 1 this week
2 commentsread comments
1 2 3 4 5
x 3
add to favorites
×
Save as Personal and add changes to this tab that will be seen only by you. Learn more ›
×
You can save this tab as Personal to edit and correct it or add notes. All changes will be seen only by you. Learn more »
launch autoscroll
font size
0
reset
transpose
0
reset
simplify chords
display chords
guitar tuner
edit
Autoscroll
slow
fast
+/-
esc
set tempo
stop
Strumming
There is no strumming pattern for this song yet. and get +5 IQ
Got the lyrics elsewhere; some of them sound a little off.
The recurring riff is just a C to a B and then two Cs.

          G             F
For lock me in, tied to work
          Am              C
Cutting diamonds, cutting diamonds
    G            F
100 days with no pay
    Am
Not anymore
          G              F
Cause I'm caught I can't type
        Am                C
I can't temp I'm way past college
        G            F
No ways out, No back doors
     C
Not anymore

         G      F
But then once a while
C                     Am
We'll play a show that makes it worthwhile
   G          F
Our sights set low
C                        G
As Jerry squares off the set here we go
     Am  C/B  C               G  F  C
But...           this boy is exhausted

Eight hours long, a single song
Come to this: triple guessing
Double down, a V.P.'s faith is one single long
Cause I can't write what I know
It's not worth writing
I can't tell a hit from hell one sing-along

But then Greg plugs in
A treble checking that says we might win
Hell's Henry pearls
The woven strap wins the Galloway girls
But...

But then Kev jumps in
And hits the floor as the stick hits the rim
I guess we're done
Cause every win on this record's hard won
But... 

            
            
Suggest correction
Creating personal tab
Creating personal tab
You can edit any tab online and save it as your Personal.

You can edit, replace or remove any tab part or add personal notes – all changes will be seen only by you.

Personal tabs can be accessed anytime from any device, even offline.
Learn more »
Give kudos to tab author, rate the tab!
1 2 3 4 5
comments
print report bad tab
2 comments total.
0 reply
patrickjohnston 1,822 Aug 31, 2015 12:50 PM, edited on September 1 2015, 02:47 pm

Recurring riff:

E|-------------------|
G|--13-12----13-13---|
B|--12-12----12-12---|
D|--10-9-----10-10---|
A|-------------------|
E|-------------------|

"But then once a while" and "But then Greg plus in"

E|------------| |--------------|
G|--5--6--8~--| OR |--8--10--12~--|
B|--4--5--7~--| |--9--10--12~--|
D|--2--3--5~--| |--9--10--12~--|
A|------------| |--7--8---10~--|
E|------------| |--------------|

Chorus riff 1:

E|--------------------|
B|--------------------|
G|--10--9--7/9--7--5--|
D|--x---x--x-x--x--x--|
A|--8---7--5/7--5--3--|
E|--------------------|

Chorus riff 2:

E|--------------|
B|--------------|
G|--9--10--9\7--|
D|--x--x---x-x--|
A|--7--8---7\5--|
E|--------------|

"But then Kev jumps in"

E|------------|
B|-----12-13--|
G|--12--------|
D|------------|
A|------------|
E|------------|

This repeats until the final chorus

Final chorus riff:

E|--7---7---8---8----|
B|----8---8---8---8--|
G|-------------------|
D|-------------------|
A|-------------------|
E|-------------------|

Continues like that for a while then goes an octave up

E|--19----19----20----20-----|
B|-----20----20----20----20--|
G|---------------------------|
D|---------------------------|
A|---------------------------|
E|---------------------------|

0 reply
patrickjohnston 1,822 Sep 01, 2015 10:53 AM

This comment section has the worst formatting I've ever seen.

"But then once a while" and "But then Greg plugs in"

E|--------------|
G|--8--10--12~--|
B|--9--10--12~--|
G|--9--10--12~--|
A|--7--8---10~--|
E|--------------|

guest
Wanna post a correction for this tab? Suggest correction