Oops, an error
Loading. Please wait.

Robe For Juda bass

418 views 1 this week
no commentswrite comment
1 2 3 4 5
2 more votes to show rating
add to favorites
×
Save as Personal and add changes to this tab that will be seen only by you. Learn more ›
×
You can save this tab as Personal to edit and correct it or add notes. All changes will be seen only by you. Learn more »
launch autoscroll
font size
0
reset
guitar tuner
edit
Autoscroll
slow
fast
+/-
esc
set tempo
stop
Author
Difficulty
Song: Robe For Juda
Artist: The Wytches
Album: Robe For Juda
=============================
http://www.thewytches.com
http://thewytches.tumblr.com
http://instagram.com/thewytches
http://thewytches.bandcamp.com
https://www.facebook.com/thewytches
https://soundcloud.com/thewytches
http://www.youtube.com/user/witchesmovies
https://twitter.com/thewytches
=============================


here's the guitar part if it's needed: https://tabs.ultimate-guitar.com/t/the_wytches/robe_for_juda_tab.htm


        =Intro=
                                              -------------- 3x ---------------                           
00:00   G-----------------|-----------------|-----------------|-----------------|
        D-----------------|-----------------|-----------------|-----------------|
        A-----------------|-----2-2-2-2-----|-----------------|-2-2-2-2-2-2-----|
        E-----------------|-3-3---------3-3-|-2-2-2-2-2-2-3-3-|-------------3-3-|
     
00:16   G-----------------|-----------------|-----------------|-----------------|
        D-----------------|-----------------|-----------------|-----------------| 2x
        A-----------------|-2-2-2-2-2-2-----|-----------------|-2-2-2-2-2-2-----|
        E-2-2-2-2-2-2-3-3-|-------------3-3-|-2-2-2-2-2-2-3-3-|-------------3-3-|


        =Verse=
             
00:33   G-----------------|-----------------|-----------------|-----------------|
        D-----------------|-----------------|-----------------|-----------------| 2x
        A-----------------|-2-2-2-2-2-2-----|-----------------|-2-2-2-2-2-2-----|
        E-2-2-2-2-2-2-3-3-|-------------3-3-|-2-2-2-2-2-2-3-3-|-------------3-3-|
            
        G-----------------|-----------------|-----------------|-----------------|
        D-----------------|-----------------|-----------------|-----------------|
        A-----------------|-2-2-2-2-2-2-----|-----------------|-2-2-2-2-2-2-----|
        E-2-2-2-2-2-2-3-3-|-------------3-3-|-2-2-2-2-2-2-3-3-|-------------3-3-|

        G-----------------|-----------------|-----------------|-------------0---|
        D-----------------|-----------------|-----------------|-----------------|
        A-----------------|-2-2-2-2-2-2-----|-----------------|-2-2-2-2-2-------|
        E-2-2-2-2-2-2-3-3-|-------------3-3-|-2-2-2-2-2-2-3-3-|-----------------|


        =Chorus=
01:05   G-----------------|-----------------|-----------------|-----------------|
        D-----------------|-----------------|-----------------|-----------------|
        A-----------------|-----------------|-----------------|-----------------|
        E-2---2-2-8---8-8-|-2---2-2-8---8-8-|-2---2-2-8---8-8-|-2---2---2---14\-|

        G-----------------|-----------------|-----------------|-----------------|
        D-----------------|-----------------|-----------------|-----------------|
        A-----------------|-----------------|-----------------|-----------------|
        E-2---2-2-8---8-8-|-2---2-2-8---8-8-|-2---2-2-8---8-8-|-2---2---22-2-2--|

01:25   G---------3-------|-----------------|
        D-----------------|-----------------|
        A-2---------------|-----------------|
        E-----------------|-3---------------|

01:34   G-----------------|-----------------|-----------------|-----------------|
        D-----------------|-----------------|-----------------|-----------------|
        A-----------------|-2-2-2-2-2-2-----|-----------------|-2-2-2-2-2-2-----|
        E-2-2-2-2-2-2-3-3-|-------------3-3-|-2-2-2-2-2-2-3-3-|-------------3-3-|


        =Verse=
             
01:43   G-----------------|-----------------|-----------------|-----------------|
        D-----------------|-----------------|-----------------|-----------------| 2x
        A-----------------|-2-2-2-2-2-2-----|-----------------|-2-2-2-2-2-2-----|
        E-2-2-2-2-2-2-3-3-|-------------3-3-|-2-2-2-2-2-2-3-3-|-------------3-3-|
            
        G-----------------|-----------------|-----------------|-----------------|
        D-----------------|-----------------|-----------------|-----------------|
        A-----------------|-2-2-2-2-2-2-----|-----------------|-2-2-2-2-2-2-----|
        E-2-2-2-2-2-2-3-3-|-------------3-3-|-2-2-2-2-2-2-3-3-|-------------3-3-|

        G-----------------|-----------------|-----------------|-------------0---|
        D-----------------|-----------------|-----------------|-----------------|
        A-----------------|-2-2-2-2-2-2-----|-----------------|-2-2-2-2-2-------|
        E-2-2-2-2-2-2-3-3-|-------------3-3-|-2-2-2-2-2-2-3-3-|-----------------|


        =Chorus=
02:16   G-----------------|-----------------|-----------------|-----------------|
        D-----------------|-----------------|-----------------|-----------------|
        A-----------------|-----------------|-----------------|-----------------|
        E-2---2-2-8---8-8-|-2---2-2-8---8-8-|-2---2-2-8---8-8-|-2---2---2---14\-|

        G-----------------|-----------------|-----------------|-----------------|
        D-----------------|-----------------|-----------------|-----------------|
        A-----------------|-----------------|-----------------|-----------------|
        E-2---2-2-8---8-8-|-2---2-2-8---8-8-|-2---2-2-8---8-8-|-2---2---22-2-2--|

02:34   G---------3-------|-------------------------|---------3-------|---------|
        D-----------------|--------------4-4-2------|-----------------|---------|
        A-2---------------|---------------------5-4-|-2---------------|---------|
        E-----------------|-3-----------------------|-----------------|-3-------|


        =Bridge=
02:50   G-----------------|-----------------|-----------------|-----------------|
        D-----------------|-----------------|-----------------|-----------------|
        A-----------------|-----------------|-----------------|-----------------|
        E-2-2-2-2-2-2-2-2-|-2-2-2-2-2-2-2-2-|-2-2-2-2-2-2-2-2-|-2-2-2-2-2-2-2-2-|
                                                          |- s  l  o  w  e  r -|
        G-----------------|-----------------|-----------------|-----------------|
        D-----------------|-----------------|-----------------|-----------------|
        A-9-9-9-9-9-9-9-9-|-9-9-9-9-9-9-9-9-|-9-9-9-9-9-9-9-9-|-9-9-9-9-9-9-9-9-|
        E-----------------|-----------------|-----------------|-----------------|

        
        =Outro= 
03:09   G---------------|----------------|----------------|-----------------|
        D---------------|----------------|----------------|-----------------| 2x
        A---------------|----------------|----------------|-----------------| 
        E-2-------------|-8--------------|-2--------------|-8---------------|

        G----------------|-----------------|-----------------|-----------------|
        D----------------|-----------------|-----------------|-----------------| 4x
        A----------------|-----------------|-----------------|-----------------|
        E-2---2---2---2--|-8---8---8---8---|-2---2---2---2---|-8---8---8---8---|

        G----------------|
        D----------------|
        A----------------|
        E-2--------------|


       


                               =========================================
                                don't forget to rate! that helps a lot!
                               =========================================
                                                  &    
                             =============================================
                             give me credit if you're using any of my tabs
                             =============================================


¨¨¨¨¨¨¨¨¨¨¨¨¨¨¨¨¨¨¨¨¨¨¨¨¨¨¨¨¨¨¨¨¨¨
-www.confort-reciclaclo.tumblr.com
-www.facebook.com/I.Really.Sux
-www.last.fm/user/mr_ahab
-f.alejandro27@gmail.com

            
            
Suggest correction
Creating personal tab
Creating personal tab
You can edit any tab online and save it as your Personal.

You can edit, replace or remove any tab part or add personal notes – all changes will be seen only by you.

Personal tabs can be accessed anytime from any device, even offline.
Learn more »
Give kudos to tab author, rate the tab!
1 2 3 4 5
comments
print report bad tab
guest
You may want to rate the tab now too:
select rating
Wanna post a correction for this tab? Suggest correction