Oops, an error
Loading. Please wait.
We have an official Sunset tab made by UG professional guitarists. Check out the tab »
×
by The xx
7,206 views 3 this week
2 commentsread comments
1 2 3 4 5
x 10
add to favorites
×
Save as Personal and add changes to this tab that will be seen only by you. Learn more ›
×
You can save this tab as Personal to edit and correct it or add notes. All changes will be seen only by you. Learn more »
launch autoscroll
font size
0
reset
guitar tuner
edit
Autoscroll
slow
fast
+/-
esc
set tempo
stop
Author
Difficulty
G|------------|------------|
D|------------|------------|  x4
A|-9-/-12-\-7-|-9-/-12-\-5-|
E|------------|------------|

Break

G|------------|
D|------------|  x2
A|-9-/-12-\-7-|
E|------------|


Solo:
G|--------------------------------------------|
D|-----9-/-11-\-9---------7-77-------7-------7|
A|-999------------77-/-5-------7-/-5---7-/5---|
E|--------------------------------------------|


G|----------------------------|
D|----------------77777777777-| The number of notes may be incorrect, just play along.
A|-99999-\-777777-------------|
E|----------------------------|

Break

G|------------|
D|------------|
A|-9-/-12-\-5-|
E|------------|

            
            
Suggest correction
Creating personal tab
Creating personal tab
You can edit any tab online and save it as your Personal.

You can edit, replace or remove any tab part or add personal notes – all changes will be seen only by you.

Personal tabs can be accessed anytime from any device, even offline.
Learn more »
comments
print report bad tab
2 comments total.
+2 reply
ruggine 10 May 12, 2013 03:41 AM

I think the Solo part should be like this:
G|--------------------------------------------|
D|-----9-/-11-\-9---------7-77-------7-------7|
A|-999------------77-/-5-------7-/-5---7-/5---|
E|--------------------------------------------|

+3 reply
panda92 197 May 23, 2013 01:37 AM

Thanks ruggine. Looking back at a few videos of Oliver playing it, you're spot on. I have no idea what I was thinking when I wrote this tab initially.

guest
You may want to rate the tab now too:
select rating
Wanna post a correction for this tab? Suggest correction