Oops, an error
Loading. Please wait.

Cant Nobody Love You bass

version 1
version 1

Whole song

Interactive

49 views 1 this week
no commentswrite comment
1 2 3 4 5
3 more votes to show rating
add to favorites
×
Save as Personal and add changes to this tab that will be seen only by you. Learn more ›
×
You can save this tab as Personal to edit and correct it or add notes. All changes will be seen only by you. Learn more »
launch autoscroll
font size
0
reset
guitar tuner
edit
Autoscroll
slow
fast
+/-
esc
set tempo
stop
Author
Difficulty
Tabbed by6METAL6BASSIST6
E-mail: petergriffinav@gmail.com

Tuning: EADG

0:15

G|------------------|
D|------0-----2-----|
A|3-----------------|
E|------------------|

G|------------------------------------------------------------------------|
D|3-----------------------------------------------------------------------|
A|------------------------------------0-----------------0-----2-----4-----|
E|------------------------------------------------------------------------|

G|------------------------------------------------------------------------|
D|0-----------------------------------------------------0-----2-----4-----|
A|------------------------------------0-----------------------------------|
E|------------------------------------------------------------------------|

G|------------------------------------------------------------------------|
D|5-----------------------------------0-----------------------5-----0-----|
A|------------------------------------------------------------------------|
E|------------------------------------------------------------------------|

G|------------------------------------------------------------------------|
D|------------------------------------------------------------0-----2-----|
A|3-----------------------------2-----3-----------------3-----------------|
E|------------------------3-----------------------------------------------|

0:30

G|------------------------------------------------------------------------|
D|3-----------------------------------------------------------3-----------|
A|------------------------------------3-----------------------------3-----|
E|------------------------------------------------------------------------|

G|------------------------------------------------------------------------|
D|------------------------------------------------------------------2-----|
A|0-----------------------------------0-----------------0-----3-----------|
E|------------------------------------------------------------------------|

G|------------------------------------------------------------------------|
D|------------------------------------------------------------0-----3-----|
A|1-----------------------------------1-----------------1-----------------|
E|------------------------------------------------------------------------|

G|------------------------------------------------------------------------|
D|5-----5-----5-----5-----5-----5-----5-----5-----5-----5-----5-----5-----|
A|------------------------------------------------------------------------|
E|------------------------------------------------------------------------|

0:42

G|------------------------------------------------------------------------|
D|3-----------------------------3-----------------------------------------|
A|------------------------------------0-----------------0-----2-----4-----|
E|------------------------------------------------------------------------|

G|------------------------------------------------------------------------|
D|0-----------------------------------------------------0-----2-----4-----|
A|------------------------------------0-----------------------------------|
E|------------------------------------------------------------------------|

G|------------------------------------------------------------------------|
D|5-----------------------5-----0-----------------------------0-----2-----|
A|------------------------------------3-----------------3-----------------|
E|------------------------------------------------------------------------|

G|------------------------------------------------------------------------|
D|3-----------------------2-----0-----------------------------0-----2-----|
A|------------------------------------3-----------------3-----------------|
E|------------------------------------------------------------------------|

0:57

G|------------------------------------------------------------------------|
D|3-----------------------------3-----------------------------------------|
A|------------------------------------0-----------------0-----2-----4-----|
E|------------------------------------------------------------------------|

G|------------------------------------------------------------------------|
D|0-----------------------------------------------------------0-----4-----|
A|------------------------------------0-----------------------------------|
E|------------------------------------------------------------------------|

G|------------------------------------------------------------------------|
D|5-----------------------5-----0-----------------------------0-----2-----|
A|------------------------------------3-----------------3-----------------|
E|------------------------------------------------------------------------|

G|------------------------------------------------------------------------|
D|3-----------------------2-----0-----------------------------0-----2-----|
A|------------------------------------3-----------------3-----------------|
E|------------------------------------------------------------------------|

1:11

G|------------------------------------------------------------------------|
D|3-----------------------------3-----------------------------------------|
A|------------------------------------0-----------------0-----2-----4-----|
E|------------------------------------------------------------------------|

G|------------------------------------------------------------------------|
D|0-----------------------------------------------------0-----2-----4-----|
A|------------------------------------0-----------------------------------|
E|------------------------------------------------------------------------|

G|------------------------------------------------------------------------|
D|5-----------------------------------0-----------------------5-----0-----|
A|------------------------------------------------------------------------|
E|------------------------------------------------------------------------|

G|------------------------------------------------------------------------|
D|------------------------------------------------------------0-----2-----|
A|3-----------------------------2-----3-----------------3-----------------|
E|------------------------3-----------------------------------------------|

1:27

G|------------------------------------------------------------------------|
D|3-----------------------------------------------------------3-----------|
A|------------------------------------3-----------------------------3-----|
E|------------------------------------------------------------------------|

G|------------------------------------------------------------------------|
D|------------------------------------------------------------------2-----|
A|0-----------------------------------0-----------------0-----3-----------|
E|------------------------------------------------------------------------|

G|------------------------------------------------------------------------|
D|------------------------------------------------------------0-----3-----|
A|1-----------------------------------1-----------------1-----------------|
E|------------------------------------------------------------------------|

G|------------------------------------------------------------------------|
D|5-----5-----5-----5-----5-----5-----5-----5-----5-----5-----5-----5-----|
A|------------------------------------------------------------------------|
E|------------------------------------------------------------------------|

1:38

G|------------------------------------------------------------------------|
D|3-----------------------------3-----------------------------------------|
A|------------------------------------0-----------------0-----2-----4-----|
E|------------------------------------------------------------------------|

G|------------------------------------------------------------------------|
D|0-----------------------------------------------------0-----2-----4-----|
A|------------------------------------0-----------------------------------|
E|------------------------------------------------------------------------|

G|------------------------------------------------------------------------|
D|5-----------------------5-----0-----------------------------0-----2-----|
A|------------------------------------3-----------------3-----------------|
E|------------------------------------------------------------------------|

G|------------------------------------------------------------------------|
D|3-----------------------------------3-----------------3-----------------|
A|------------------------------3-----------------------------------------|
E|------------------------------------------------------------------------|

1:54

G|------------------------------------------------------------------------|
D|5-----------------------------------------------------------------------|
A|------------------------------------------------------3-----------------|
E|------------------------------------------------------------------------|

G|------------------------------------------------------------------------|
D|------------------------------------------------------------------------|
A|------------------------------------------------------------------------|
E|------------------------------------------------------------------------|

G|------------------------------------------------------------------------|
D|------------------------------------------------------------------------|
A|------------------------------------------------------------------------|
E|------------------------------------------------------------------------|

G|------------------------------------------------------------------------|
D|------------------------------------------------------------------------|
A|------------------------1-----------------------------------------------|
E|------------------------------------------------------------------------|

G|------------------------------------|
D|------------------------------------|
A|------0-----------------------------|
E|------------------------------------|

            
            
Suggest correction
Creating personal tab
Creating personal tab
You can edit any tab online and save it as your Personal.

You can edit, replace or remove any tab part or add personal notes – all changes will be seen only by you.

Personal tabs can be accessed anytime from any device, even offline.
Learn more »
Give kudos to tab author, rate the tab!
1 2 3 4 5
comments
print report bad tab
guest
You may want to rate the tab now too:
select rating
Wanna post a correction for this tab? Suggest correction