Oops, an error
Loading. Please wait.

No Surprise bass

2,622 views 3 this week
1 commentread comment
1 2 3 4 5
2 more votes to show rating
add to favorites
×
Save as Personal and add changes to this tab that will be seen only by you. Learn more ›
×
You can save this tab as Personal to edit and correct it or add notes. All changes will be seen only by you. Learn more »
launch autoscroll
font size
0
reset
guitar tuner
edit
Autoscroll
slow
fast
+/-
esc
set tempo
stop
---------------------------------------------------------------------------------------
                            NO SURPRISE - Theory of a Deadman
---------------------------------------------------------------------------------------

Tabbed By: Samuel Mobbs
Email: bogan_bassist@hotmail.com

Tuning: Standard 5-string (BEADG)


Before you play this song, listen to the music along with it, because it has a lot of
'trotting' from one note to the next. In fact, most of the song has it. That been said,
have fun playing. Oh and by the way, if you don't have a 5-string... most of it is all
on the one string so I'm sure you'll figure it out.


REST first 6 bars

Intro

G|----------------|----------------|
D|----------------|----------------|
A|----------------|----------------|
E|----------------|----------------|
B|0---------------|3---3---1-3-1-0-|

G|----------------|----------------|----------------|----------------|
D|----------------|----------------|----------------|----------------|
A|----------------|----------------|----------------|----------------|
E|----------------|----------------|----------------|----------------|
B|0---0-----0---0-|0-0-0-0-1---1---|0---0-----0---0-|3---3---1-3-1-0-|

Verse

G|----------------|----------------|               G|----------------|----------------|
D|----------------|----------------|               D|----------------|----------------|
A|----------------|----------------|  X  3  then   A|----------------|----------------|
E|----------------|----------------|               E|----------------|----------------|
B|0---0-----0---0-|0-0-0-0-1---1---|               B|0---0-----0---0-|3---3---1-3-1-0-|

G|----------------|----------------|               G|----------------|----------------|
D|----------------|----------------|               D|----------------|----------------|
A|----------------|----------------|  X  3  then   A|----------------|----------------|
E|----------------|----------------|               E|----------------|----------------|
B|0---0-----0---0-|0-0-0-0-1---1---|               B|0---0-----0---0-|0-0-0-0-0-1-1-1-|

Chorus

G|----------------|----------------|----------------|----------------|
D|----------------|----------------|----------------|----------------|
A|----------------|----------------|----------------|----------------|  X  3
E|3---33--33--33--|33--33--3-------|5---55--55--55--|55--55--55--55--|
B|----------------|---------3--33--|----------------|----------------|

G|----------------|----------------|----------------|----------------|
D|----------------|----------------|----------------|----------------|
A|----------------|----------------|----------------|----------------|
E|3---33--33--33--|33--33--3-------|5---55--55--55--|55-5/--12\------|
B|----------------|---------3--33--|----------------|----------------|

Pre-Verse

G|----------------|----------------|----------------|----------------|
D|----------------|----------------|----------------|----------------|
A|----------------|----------------|----------------|----------------|
E|----------------|----------------|----------------|----------------|
B|0---0-----0---0-|0-0-0-0-1---1---|0---0-----0---0-|3---3---1-3-1-0-|

Verse

Chorus

Pre-Verse

REST for 10 bars

Fill

G|----------------|
D|----------------|
A|----------------|
E|----------------|
B|0---------------|

Chorus

Outro

G|----------------|----------------|----------------|----------------|
D|----------------|----------------|----------------|----------------|
A|----------------|----------------|----------------|----------------|
E|----------------|----------------|----------------|----------------|
B|0---0-----0---0-|0-0-0-0-1---1---|0---0-----0---0-|0-0-0-0-1---1---|

G|----------------|----------------|----------------|----------------|
D|----------------|----------------|----------------|----------------|
A|----------------|----------------|----------------|----------------|
E|----------------|----------------|----------------|----------------|
B|0---0-----0---0-|0-0-0-0-1---1---|0---0-----0---0-|3---3---1-3-1-0-|

Well, there you have it. Not the prettiest thing in the world, but it's all there.
Anyways, have fun playing.

Questions, comments, corrections? Email me at bogan_bassist@hotmail.com

| /  slide up
| \  slide down
| h  hammer-on
| p  pull-off
| ~  hold note
| +  harmonic
| x  mute note
=======================================================================================

            
            
Suggest correction
Creating personal tab
Creating personal tab
You can edit any tab online and save it as your Personal.

You can edit, replace or remove any tab part or add personal notes – all changes will be seen only by you.

Personal tabs can be accessed anytime from any device, even offline.
Learn more »
Give kudos to tab author, rate the tab!
1 2 3 4 5
comments
print report bad tab
1 comment total.
0 reply
KennyM79 2,238 Jun 02, 2015 04:40 PM

Great tab! Thanks!! Much appreciated.

guest
You may want to rate the tab now too:
select rating
Wanna post a correction for this tab? Suggest correction