Oops, an error
Loading. Please wait.

Not Meant To Be Acoustic tab

version 4
version 4

Whole song

136 views 3 this week
no commentswrite comment
1 2 3 4 5
3 more votes to show rating
add to favorites
×
Save as Personal and add changes to this tab that will be seen only by you. Learn more ›
×
You can save this tab as Personal to edit and correct it or add notes. All changes will be seen only by you. Learn more »
launch autoscroll
font size
0
reset
how to read this tab
guitar tuner
edit
Autoscroll
slow
fast
+/-
esc
set tempo
stop
There are 3 different guitars used in the song, two rhythm-guitars that play almost the same and complement 
each other to make nice stereo sound and a lead guitar. I merged these two rhythm ones so it sounds better
with a single guitar. The lead part you can find on this site in other versions if you want.

[Intro]
   Bm           Asus4          G                           Bm           Asus4          G
e|-2-----2--2-2-0-0--0-0-0-0-|-3---3-3--3-3-3-3--3-3-3-3-|-2-----2--2-2-0-0--0-0-0-0-|-3--|
B|-3-----3--3-3-3-3--3-3-3-3-|-3---3-3--3-3-3-3--3-3-3-3-|-3-----3--3-3-3-3--3-3-3-3-|-0--|
G|-4-----4--4-4-2-2--2-2-2-2-|-0---0-0--0-0-0-0--0-0-0-0-|-4-----4--4-4-2-2--2-2-2-2-|-0--|
D|-4-----4--4-4-2-2--2-2-2-2-|-0---0-0--0-0-0-0--0-0-0-0-|-4-----4--4-4-2-2--2-2-2-2-|-0--|
A|-2-----2--2-2-0-0--0-0-0-0-|-2---2-2--2-2-2-2--2-2-2-2-|-2-----2--2-2-0-0--0-0-0-0-|-2--|
E|---------------------------|-3---3-3--3-3-3-3--3-3-3-3-|---------------------------|-3--|
   Λ     Λ  ʌ v v ʌ  ʌ v ʌ v   Λ   v Λ  ʌ v v Λ  ʌ v ʌ v   Λ     Λ  ʌ v v ʌ  ʌ v ʌ v   Λ

[Verse]
   Bm            Asus4          G
e|-2-2----2--2-2-0-0--0-0-0-0-|-3----3-3-3-3--3-3--3-3-3-3-|
B|-3-3----3--3-3-3-3--3-3-3-3-|-3----0-3-3-3--3-3--0-3-3-3-|
G|-4-4----4--4-4-2-2--2-2-2-2-|-0----0-0-0-0--0-0--0-0-0-0-|
D|-4-4----4--4-4-2-2--2-2-2-2-|-0--0-0-0-0-0--0-0--0-0-0-0-|
A|-2-2----2--2-2-0-0--0-0-0-0-|-2--2-2-2-2-2--2-2--2-2-2-2-|
E|----------------------------|-3--3-3-3-3-3--3-3--3-3-3-3-|
   v Λ    Λ  ʌ v v ʌ  ʌ v ʌ v   Λ  ʌ Λ v ʌ v  v Λ  ʌ v ʌ v

   Bm           Asus4          G
e|-2-----2--2-2-0-0--0-0-0-0-|-3----3-3-3-3--3-3--3-3-3-3--|
B|-3-----3--3-3-3-3--3-3-3-3-|-3----0-3-3-3--3-3--0-3-3-3--|
G|-4---4-4--4-4-2-2--2-2-2-2-|-0----0-0-0-0--0-0--0-0-0-0--|   x3
D|-4---4-4--4-4-2-2--2-2-2-2-|-0--0-0-0-0-0--0-0--0-0-0-0--|
A|-2---2-2--2-2-0-0--0-0-0-0-|-2--2-2-2-2-2--2-2--2-2-2-2--|
E|---------------------------|-3--3-3-3-3-3--3-3--3-3-3-3--|
   Λ   ʌ Λ  ʌ v v ʌ  ʌ v ʌ v   Λ  ʌ Λ v ʌ v  v Λ  ʌ v ʌ v

[Chorus]
   Em                        G                           D
e|-0------0-0-0-0--0-0-0-0-|-3------3-3-3-3-3--3-3-3-3-|-2-2-2-2-2--2-2-2-2--2-2-2-2-|
B|-0------0-3-3-3--3-3-3-3-|-3------3-3-3-3-3--3-3-3-3-|-3-3-3-3-3--3-3-3-3--3-3-3-3-|
G|-0------0-0-0-0--0-0-0-0-|-0------0-0-0-0-0--0-0-0-0-|-2-2-2-2-2--2-2-2-2--2-2-2-2-|
D|-2----2-2-2-2-2--2-2-2-2-|-0----0-0-0-0-0-0--0-0-0-0-|-0-0-0-0-0--0-0-0-0--0-0-0-0-|
A|-2----2-2-2-2-2--2-2-2-2-|-2----2-2-2-2-2-2--2-2-2-2-|-----------------------------|
E|-0----0-0-0-0-0--0-0-0-0-|-3----3-3-3-3-3-3--3-3-3-3-|-----------------------------|
   Λ    ʌ ʌ V v Λ  ʌ v ʌ v   Λ    ʌ ʌ V v Λ  ʌ v ʌ v     Λ v ʌ v Λ  ʌ V v ʌ  ʌ v ʌ v  

   Asus4                         Em                        G
e|-0-0-0-0-0--0-0-0-0--0-0-0-0-|-0---0--0-0-0-0--0-0-0-0-|-3---3--3-3-3-3--3-3-3-3-|
B|-3-3-3-3-3--3-3-3-3--3-3-3-3-|-0---0--0-3-3-3--3-3-3-3-|-3---3--3-3-3-3--3-3-3-3-|
G|-2-2-2-2-2--2-2-2-2--2-2-2-2-|-0---0--0-0-0-0--0-0-0-0-|-0---0--0-0-0-0--0-0-0-0-|
D|-2-2-2-2-2--2-2-2-2--2-2-2-2-|-2-2-2--2-2-2-2--2-2-2-2-|-0-0-0--0-0-0-0--0-0-0-0-|
A|-0-0-0-0-0--0-0-0-0--0-0-0-0-|-2-2-2--2-2-2-2--2-2-2-2-|-2-2-2--2-2-2-2--2-2-2-2-|
E|-----------------------------|-0-0-0--0-0-0-0--0-0-0-0-|-3-3-3--3-3-3-3--3-3-3-3-|
   Λ v ʌ v Λ  ʌ V v ʌ  ʌ v ʌ v   Λ ʌ Λ  ʌ V v Λ  ʌ v ʌ v   Λ ʌ Λ  ʌ V v Λ  ʌ v ʌ v

   D                             Asus4                         Em                        G
e|-2-2-2-2-2--2-2-2-2--2-2-2-2-|-0-0-0-0-0--0-0-0-0--0-0-0-0-|-0---0--0-0-0-0--0-0-0-0-|-3----3-3-3-3-3--|
B|-3-3-3-3-3--3-3-3-3--3-3-3-3-|-3-3-3-3-3--3-3-3-3--3-3-3-3-|-0---0--0-3-3-3--3-3-3-3-|-3----3-3-3-3-3--|
G|-2-2-2-2-2--2-2-2-2--2-2-2-2-|-2-2-2-2-2--2-2-2-2--2-2-2-2-|-0---0--0-0-0-0--0-0-0-0-|-0----0-0-0-0-0--|
D|-0-0-0-0-0--0-0-0-0--0-0-0-0-|-2-2-2-2-2--2-2-2-2--2-2-2-2-|-2-2-2--2-2-2-2--2-2-2-2-|-0-0--0-0-0-0-0--|
A|-----------------------------|-0-0-0-0-0--0-0-0-0--0-0-0-0-|-2-2-2--2-2-2-2--2-2-2-2-|-2-2--2-2-2-2-2--|
E|-----------------------------|-----------------------------|-0-0-0--0-0-0-0--0-0-0-0-|-3-3--3-3-3-3-3--|
   Λ v ʌ v Λ  ʌ v v Λ  ʌ v ʌ v   Λ v ʌ v Λ  ʌ v v Λ  ʌ v ʌ v   Λ ʌ Λ  ʌ v v Λ  ʌ v ʌ v   Λ ʌ  ʌ v ʌ v Λ

[Verse]
   Bm            Asus4          G
e|-2-2----2--2-2-0-0--0-0-0-0-|-3----3-3-3-3--3-3--3-3-3-3-|
B|-3-3----3--3-3-3-3--3-3-3-3-|-3----0-3-3-3--3-3--0-3-3-3-|
G|-4-4----4--4-4-2-2--2-2-2-2-|-0----0-0-0-0--0-0--0-0-0-0-|
D|-4-4----4--4-4-2-2--2-2-2-2-|-0--0-0-0-0-0--0-0--0-0-0-0-|
A|-2-2----2--2-2-0-0--0-0-0-0-|-2--2-2-2-2-2--2-2--2-2-2-2-|
E|----------------------------|-3--3-3-3-3-3--3-3--3-3-3-3-|
   v Λ    Λ  ʌ v v ʌ  ʌ v ʌ v   Λ  ʌ Λ v ʌ v  v Λ  ʌ v ʌ v

   Bm           Asus4          G
e|-2-----2--2-2-0-0--0-0-0-0-|-3----3-3-3-3--3-3--3-3-3-3--|
B|-3-----3--3-3-3-3--3-3-3-3-|-3----0-3-3-3--3-3--0-3-3-3--|
G|-4---4-4--4-4-2-2--2-2-2-2-|-0----0-0-0-0--0-0--0-0-0-0--|   x3
D|-4---4-4--4-4-2-2--2-2-2-2-|-0--0-0-0-0-0--0-0--0-0-0-0--|
A|-2---2-2--2-2-0-0--0-0-0-0-|-2--2-2-2-2-2--2-2--2-2-2-2--|
E|---------------------------|-3--3-3-3-3-3--3-3--3-3-3-3--|
   Λ   ʌ Λ  ʌ v v ʌ  ʌ v ʌ v   Λ  ʌ Λ v ʌ v  v Λ  ʌ v ʌ v

[Chorus]
   Em                        G                           D
e|-0------0-0-0-0--0-0-0-0-|-3------3-3-3-3-3--3-3-3-3-|-2-2-2-2-2--2-2-2-2--2-2-2-2-|
B|-0------0-3-3-3--3-3-3-3-|-3------3-3-3-3-3--3-3-3-3-|-3-3-3-3-3--3-3-3-3--3-3-3-3-|
G|-0------0-0-0-0--0-0-0-0-|-0------0-0-0-0-0--0-0-0-0-|-2-2-2-2-2--2-2-2-2--2-2-2-2-|
D|-2----2-2-2-2-2--2-2-2-2-|-0----0-0-0-0-0-0--0-0-0-0-|-0-0-0-0-0--0-0-0-0--0-0-0-0-|
A|-2----2-2-2-2-2--2-2-2-2-|-2----2-2-2-2-2-2--2-2-2-2-|-----------------------------|
E|-0----0-0-0-0-0--0-0-0-0-|-3----3-3-3-3-3-3--3-3-3-3-|-----------------------------|
   Λ    ʌ ʌ V v Λ  ʌ v ʌ v   Λ    ʌ ʌ V v Λ  ʌ v ʌ v     Λ v ʌ v Λ  ʌ V v ʌ  ʌ v ʌ v  

   Asus4                         Em                        G
e|-0-0-0-0-0--0-0-0-0--0-0-0-0-|-0---0--0-0-0-0--0-0-0-0-|-3---3--3-3-3-3--3-3-3-3-|
B|-3-3-3-3-3--3-3-3-3--3-3-3-3-|-0---0--0-3-3-3--3-3-3-3-|-3---3--3-3-3-3--3-3-3-3-|
G|-2-2-2-2-2--2-2-2-2--2-2-2-2-|-0---0--0-0-0-0--0-0-0-0-|-0---0--0-0-0-0--0-0-0-0-|
D|-2-2-2-2-2--2-2-2-2--2-2-2-2-|-2-2-2--2-2-2-2--2-2-2-2-|-0-0-0--0-0-0-0--0-0-0-0-|
A|-0-0-0-0-0--0-0-0-0--0-0-0-0-|-2-2-2--2-2-2-2--2-2-2-2-|-2-2-2--2-2-2-2--2-2-2-2-|
E|-----------------------------|-0-0-0--0-0-0-0--0-0-0-0-|-3-3-3--3-3-3-3--3-3-3-3-|
   Λ v ʌ v Λ  ʌ V v ʌ  ʌ v ʌ v   Λ ʌ Λ  ʌ V v Λ  ʌ v ʌ v   Λ ʌ Λ  ʌ V v Λ  ʌ v ʌ v

   D                             Asus4                         Em
e|-2-2-2-2-2--2-2-2-2--2-2-2-2-|-0-0-0-0-0--0-0-0-0--0-0-0-0-|-0---0--0-0-0-0--0-0-0-0--|
B|-3-3-3-3-3--3-3-3-3--3-3-3-3-|-3-3-3-3-3--3-3-3-3--3-3-3-3-|-0---0--0-3-3-3--3-3-3-3--|
G|-2-2-2-2-2--2-2-2-2--2-2-2-2-|-2-2-2-2-2--2-2-2-2--2-2-2-2-|-0---0--0-0-0-0--0-0-0-0--|
D|-0-0-0-0-0--0-0-0-0--0-0-0-0-|-2-2-2-2-2--2-2-2-2--2-2-2-2-|-2-2-2--2-2-2-2--2-2-2-2--|
A|-----------------------------|-0-0-0-0-0--0-0-0-0--0-0-0-0-|-2-2-2--2-2-2-2--2-2-2-2--|
E|-----------------------------|-----------------------------|-0-0-0--0-0-0-0--0-0-0-0--|
   Λ v ʌ v Λ  ʌ V v Λ  ʌ v ʌ v   Λ v ʌ v Λ  ʌ V v Λ  ʌ v ʌ v   Λ ʌ Λ  ʌ V v Λ  ʌ v ʌ v

   G
e|-3---3-3-3-3-3-3-3-3-3-3-3-3--|
B|-3---3-3-3-3-3-3-3-3-3-3-3-3--|
G|-0---0-0-0-0-0-0-0-0-0-0-0-0--|
D|-0-0-0-0-0-0-0-0-0-0-0-0-0-0--|
A|-2-2-2-2-2-2-2-2-2-2-2-2-2-2--|
E|-3-3-3-3-3-3-3-3-3-3-3-3-3-3--|
   Λ ʌ ʌ v ʌ v ʌ v ʌ v ʌ v ʌ v

[Bridge]
   Asus4                     Em                        Asus4                     Em       G
e|-0---0--0-0-0-0--0-0-0-0-|-0---0--0-0-0-0--0-0-0-0-|-0---0--0-0-0-0--0-0-0-0-|-0---0--0-3-3-3--3-3-3-3-|
B|-3---3--3-3-3-3--3-3-3-3-|-0---0--0-3-3-3--3-3-3-3-|-3---3--3-3-3-3--3-3-3-3-|-0---0--0-3-3-3--3-3-3-3-|
G|-2-2-2--2-2-2-2--2-2-2-2-|-0---0--0-0-0-0--0-0-0-0-|-2-2-2--2-2-2-2--2-2-2-2-|-0---0--0-0-0-0--0-0-0-0-|
D|-2-2-2--2-2-2-2--2-2-2-2-|-2-2-2--2-2-2-2--2-2-2-2-|-2-2-2--2-2-2-2--2-2-2-2-|-2-2-2--2-0-0-0--0-0-0-0-|
A|-0-0-0--0-0-0-0--0-0-0-0-|-2-2-2--2-2-2-2--2-2-2-2-|-0-0-0--0-0-0-0--0-0-0-0-|-2-2-2--2-2-2-2--2-2-2-2-|
E|-------------------------|-0-0-0--0-0-0-0--0-0-0-0-|-------------------------|-0-0-0--0-3-3-3--3-3-3-3-|
   Λ ʌ Λ  ʌ V v Λ  ʌ v ʌ v   Λ ʌ Λ  ʌ V v Λ  ʌ v ʌ v   Λ ʌ Λ  ʌ V v Λ  ʌ v ʌ v   Λ ʌ Λ  ʌ V v Λ  ʌ v ʌ v

[Prelude]
   D                             Asus4                         Em                        G
e|-2-2-2-2-2--2-2-2-2--2-2-2-2-|-0-0-0-0-0--0-0-0-0--0-0-0-0-|-0---0--0-0-0-0--0-0-0-0-|------------|
B|-3-3-3-3-3--3-3-3-3--3-3-3-3-|-3-3-3-3-3--3-3-3-3--3-3-3-3-|-0---0--0-3-3-3--3-3-3-3-|---------3--|
G|-2-2-2-2-2--2-2-2-2--2-2-2-2-|-2-2-2-2-2--2-2-2-2--2-2-2-2-|-0---0--0-0-0-0--0-0-0-0-|-0-----0-0--|
D|-0-0-0-0-0--0-0-0-0--0-0-0-0-|-2-2-2-2-2--2-2-2-2--2-2-2-2-|-2-2-2--2-2-2-2--2-2-2-2-|-0-0-0-0-0--|
A|-----------------------------|-0-0-0-0-0--0-0-0-0--0-0-0-0-|-2-2-2--2-2-2-2--2-2-2-2-|-2-2-2-2-2--|
E|-----------------------------|-----------------------------|-0-0-0--0-0-0-0--0-0-0-0-|-3-3-3-3-3--|
   ʌ v ʌ v ʌ  ʌ v v ʌ  ʌ v ʌ v   ʌ v ʌ v ʌ  ʌ v v ʌ  ʌ v ʌ v   ʌ ʌ ʌ  ʌ v v ʌ  ʌ v ʌ v   ʌ ʌ ʌ ʌ Λ

[Chorus]
   D                             Asus4                         Em
e|-2-2-2-2-2--2-2-2-2--2-2-2-2-|-0-0-0-0-0--0-0-0-0--0-0-0-0-|-0---0--0-0-0-0--0-0-0-0-|
B|-3-3-3-3-3--3-3-3-3--3-3-3-3-|-3-3-3-3-3--3-3-3-3--3-3-3-3-|-0---0--0-3-3-3--3-3-3-3-|
G|-2-2-2-2-2--2-2-2-2--2-2-2-2-|-2-2-2-2-2--2-2-2-2--2-2-2-2-|-0---0--0-0-0-0--0-0-0-0-|
D|-0-0-0-0-0--0-0-0-0--0-0-0-0-|-2-2-2-2-2--2-2-2-2--2-2-2-2-|-2-2-2--2-2-2-2--2-2-2-2-|
A|-----------------------------|-0-0-0-0-0--0-0-0-0--0-0-0-0-|-2-2-2--2-2-2-2--2-2-2-2-|
E|-----------------------------|-----------------------------|-0-0-0--0-0-0-0--0-0-0-0-|
   Λ v ʌ v Λ  ʌ V v ʌ  ʌ v ʌ v   Λ v ʌ v Λ  ʌ V v ʌ  ʌ v ʌ v   Λ ʌ Λ  ʌ V v Λ  ʌ v ʌ v

   G                         D                             Asus4  
e|-3---3--3-3-3-3--3-3-3-3-|-2-2-2-2-2--2-2-2-2--2-2-2-2-|-0-0-0-0-0--0-0-0-0--0-0-0-0-|
B|-3---3--3-3-3-3--3-3-3-3-|-3-3-3-3-3--3-3-3-3--3-3-3-3-|-3-3-3-3-3--3-3-3-3--3-3-3-3-|
G|-0---0--0-0-0-0--0-0-0-0-|-2-2-2-2-2--2-2-2-2--2-2-2-2-|-2-2-2-2-2--2-2-2-2--2-2-2-2-|
D|-0-0-0--0-0-0-0--0-0-0-0-|-0-0-0-0-0--0-0-0-0--0-0-0-0-|-2-2-2-2-2--2-2-2-2--2-2-2-2-|
A|-2-2-2--2-2-2-2--2-2-2-2-|-----------------------------|-0-0-0-0-0--0-0-0-0--0-0-0-0-|
E|-3-3-3--3-3-3-3--3-3-3-3-|-----------------------------|-----------------------------|
   Λ ʌ Λ  ʌ V v Λ  ʌ v ʌ v   Λ v ʌ v Λ  ʌ V v ʌ  ʌ v ʌ v   Λ v ʌ v Λ  ʌ V v ʌ  ʌ v ʌ v 

   Em                        G
e|-0---0--0-0-0-0--0-0-0-0-|-3---3-3-3-3-3-3-3-3-3-3-3-3-3--|
B|-0---0--0-3-3-3--3-3-3-3-|-3---3-3-3-3-3-3-3-3-3-3-3-3-3--|
G|-0---0--0-0-0-0--0-0-0-0-|-0---0-0-0-0-0-0-0-0-0-0-0-0-0--|
D|-2-2-2--2-2-2-2--2-2-2-2-|-0-0-0-0-0-0-0-0-0-0-0-0-0-0-0--|
A|-2-2-2--2-2-2-2--2-2-2-2-|-2-2-2-2-2-2-2-2-2-2-2-2-2-2-2--|
E|-0-0-0--0-0-0-0--0-0-0-0-|-3-3-3-3-3-3-3-3-3-3-3-3-3-3-3--|
   Λ ʌ Λ  ʌ V v Λ  ʌ v ʌ v   Λ ʌ ʌ v ʌ v ʌ v ʌ v ʌ v ʌ v ʌ

************************************

| ʌ (Λ)  Strum down (accentuate)
| v (V)  Strum up   (accentuate)

************************************

            
            
Suggest correction
Creating personal tab
Creating personal tab
You can edit any tab online and save it as your Personal.

You can edit, replace or remove any tab part or add personal notes – all changes will be seen only by you.

Personal tabs can be accessed anytime from any device, even offline.
Learn more »
Give kudos to tab author, rate the tab!
1 2 3 4 5
comments
print report bad tab
guest
You may want to rate the tab now too:
select rating
Wanna post a correction for this tab? Suggest correction