Oops, an error
Loading. Please wait.

Nothing Could Come Between Us tab

version 3
version 3

Whole song

Interactive

1,531 views 1 this week
no commentswrite comment
1 2 3 4 5
3 more votes to show rating
add to favorites
×
Save as Personal and add changes to this tab that will be seen only by you. Learn more ›
×
You can save this tab as Personal to edit and correct it or add notes. All changes will be seen only by you. Learn more »
launch autoscroll
font size
0
reset
how to read this tab
guitar tuner
edit
Autoscroll
slow
fast
+/-
esc
set tempo
stop
Nothing Could Come Between Us
Theory of A Deadman
Theory of A Deadman (2002)

Nothing Could Come Between Us:  written by Tyler Connolly

NOTE: The solo is a bit iffy, but I think it is close.

GTR I - Drop B Tuning "Tyler Connolly" (c#,G#,E,B,F#,B)
GTR II - Drop B Tuning "Dave Brenner" (c#,G#,E,B,F#,B)
GTR III - Drop B Tuning Acoustic "Fill" (c#,G#,E,B,F#,B)
GTR IV - Drop B Tuning "Electric Fill" (c#,G#,E,B,F#,B)

Intro

   GTR II
c#|-----------------------0-------------------------|
G#|-----------------------3-----------------0-------|
 E|-------------------------------------------------|
 B|--2-----------2-----2-----------2-----2----------|
F#|--2-----------2-----2-----------2-----2----------|
 B|--2-----------2-----2-----------2-----2----------|

   GTR II
c#|-----------------------0-----------------0-------|
G#|-----------------------8-----------------8-------|
 E|-------------------------------------------------|
 B|--7-----------7-----7-----------7-----7----------|
F#|--7-----------7-----7-----------7-----7----------|
 B|--7-----------7-----7-----------7-----7----------|

   GTR II
c#|-----------------------0-----------------0-------|
G#|-----------------------3-----------------3-------|
 E|-------------------------------------------------|
 B|--2-----------2-----2-----------2-----2----------|
F#|--2-----------2-----2-----------2-----2----------|
 B|--2-----------2-----2-----------2-----2----------|

   GTR I
c#|-------------------------------------------------|
G#|-------------------------------------------------|
 E|-------------------------------------------------|
 B|-----------------------------------------0-------|
F#|-----------------------------------------0-------|
 B|-----------------------------------------0-------|
  |
  |GTR II
c#|-------------------------------------------------|
G#|-------------------------------------------------|
 E|-------------------------------------------------|
 B|--7--------------------------------------0-------|
F#|--7--------------------------------------0-------|
 B|--7--------------------------------------0-------|

   GTR I,II
c#|-------------------------------------------------|
G#|-----------------------3-----------------3-------|
 E|-------------------------------------------------|
 B|--2-----------2-----2-----------2-----2----------|
F#|--2-----------2-----2-----------2-----2----------|
 B|--2-----------2-----2-----------2-----2----------|

   GTR I,II
c#|-----------------------0-------------------------|
G#|-----------------------8-------------------------|
 E|-------------------------------------------------|
 B|--7-----------7-----7-----------7-----7--0-------|
F#|--7-----------7-----7-----------7-----7--0-------|
 B|--7-----------7-----7-----------7-----7--0-------|

   GTR I,II
c#|-----------------------0-----------------0-------|
G#|-----------------------3-----------------3-------|
 E|-------------------------------------------------|
 B|--2-----------2-----2-----------2-----2----------|
F#|--2-----------2-----2-----------2-----2----------|
 B|--2-----------2-----2-----------2-----2----------|

   GTR I,II
c#|-----------------------0-------------------------|
G#|-----------------------8-------------------------|
 E|-------------------------------------------------|
 B|--7-----------7-----7-----------7-----7--0-------|
F#|--7-----------7-----7-----------7-----7--0-------|
 B|--7-----------7-----7-----------7-----7--0-------|

Verse

   GTR I,II
c#|--------------------------0----------------------|
G#|--------------------------------------3----------|
 E|-------------------------------------------------|
 B|--2----------------------------------------------|
F#|--2----------------------------------------------|
 B|--2----------------------------------------------|

   GTR I,II
c#|--------------------------0-----------------0----|
G#|-----------------------------------8-------------|
 E|-------------------------------------------------|
 B|--7----------------------------------------------|
F#|--7----------------------------------------------|
 B|--7----------------------------------------------|

   GTR I,II
c#|--------------------------0----------------------|
G#|--------------------------------------3----------|
 E|-------------------------------------------------|
 B|--2----------------------------------------------|
F#|--2----------------------------------------------|
 B|--2----------------------------------------------|

   GTR I,II
c#|--------------------------0----------------------|
G#|-----------------------------------8-------------|
 E|-------------------------------------------------|
 B|--7----------------------------------------------|
F#|--7----------------------------------------------|
 B|--7--------------------------------------0-------|

   GTR I,II
c#|--------------------------0----------------------|
G#|--------------------------------------3----------|
 E|-------------------------------------------------|
 B|--2----------------------------------------------|
F#|--2----------------------------------------------|
 B|--2----------------------------------------------|
  |
  |GTR III
c#|--------------------------0----------------------|
G#|--------------------------------------3----------|
 E|-------------------------------------------------|
 B|-------------------------------------------------|
F#|-------------------------------------------------|
 B|-------------------------------------------------|

   GTR I,II
c#|--------------------------0-----------------0----|
G#|-----------------------------------8-------------|
 E|-------------------------------------------------|
 B|--7----------------------------------------------|
F#|--7----------------------------------------------|
 B|--7----------------------------------------------|
  |
  |GTR III
c#|--------------------------0-----------------0----|
G#|-----------------------------------8-------------|
 E|-------------------------------------------------|
 B|-------------------------------------------------|
F#|-------------------------------------------------|
 B|-------------------------------------------------|

   GTR I,II
c#|--------------------------0----------------------|
G#|--------------------------------------3----------|
 E|-------------------------------------------------|
 B|--2----------------------------------------------|
F#|--2----------------------------------------------|
 B|--2----------------------------------------------|
  |
  |GTR III
c#|--------------------------0----------------------|
G#|--------------------------------------3----------|
 E|-------------------------------------------------|
 B|-------------------------------------------------|
F#|-------------------------------------------------|
 B|-------------------------------------------------|

   GTR I
c#|-------------------------------------------------|
G#|-------------------------------------------------|
 E|-------------------------------------------------|
 B|--7----------------------------------------------|
F#|--7----------------------------------------------|
 B|--7----------------------------------------------|
  |
  |GTR II
c#|-------------------------------------------------|
G#|-------------------------------------------------|
 E|-------------------------------------------------|
 B|--7\---------------------------------------------|
F#|--7\----------------------Pickslide--------------|
 B|--7\----------------------Pickslide--------------|

Chorus

   GTR I
c#|--------0-----------0-----------5-----------5----|
G#|--------------3-----------------------8----------|
 E|-------------------------------------------------|
 B|--2----------------------------------------------|
F#|--------------------------7----------------------|
 B|-------------------------------------------------|
  |
  |GTR II
c#|-------------------------------------------------|
G#|-------------------------------------------------|
 E|-------------------------------------------------|
 B|--2-----2-----2-----2-----0-----0-----0-----0----|
F#|--2-----2-----2-----2-----0-----0-----0-----0----|
 B|--2-----2-----2-----2-----0-----0-----0-----0----|

   GTR I
c#|--------0-----------0-----------0-----------0----|
G#|--------------3-----------------------3----------|
 E|-------------------------------------------------|
 B|--2-----------------------2----------------------|
F#|-------------------------------------------------|
 B|-------------------------------------------------|
  |
  |GTR II
c#|-------------------------------------------------|
G#|-------------------------------------------------|
 E|-------------------------------------------------|
 B|--7-----7-----7-----7-----7--5--------5--4-------|
F#|--7-----7-----7-----7-----7--5--------5--4-------|
 B|--7-----7-----7-----7-----7--5--------5--4-------|

   GTR I
c#|--------0-----------0-----------5-----------5----|
G#|--------------3-----------------------8----------|
 E|-------------------------------------------------|
 B|--2----------------------------------------------|
F#|--------------------------7----------------------|
 B|-------------------------------------------------|
  |
  |GTR II
c#|-------------------------------------------------|
G#|-------------------------------------------------|
 E|-------------------------------------------------|
 B|--2-----2-----2-----2-----0-----0-----0-----0----|
F#|--2-----2-----2-----2-----0-----0-----0-----0----|
 B|--2-----2-----2-----2-----0-----0-----0-----0----|

   GTR I
c#|--------0-----------0-----------0-----------0----|
G#|--------------3-----------------------3----------|
 E|-------------------------------------------------|
 B|--2-----------------------2----------------------|
F#|-------------------------------------------------|
 B|-------------------------------------------------|
  |
  |GTR II
c#|-------------------------------------------------|
G#|-------------------------------------------------|
 E|-------------------------------------------------|
 B|--7-----7-----7-----7--------0--0--0-----0--0--0-|
F#|--7-----7-----7-----7--------0--0--0-----0--0--0-|
 B|--7-----7-----7-----7--------0--0--0-----0--0--0-|

   GTR I
c#|--------0-----------0-----------5-----------5----|
G#|--------------3-----------------------8----------|
 E|-------------------------------------------------|
 B|--2----------------------------------------------|
F#|--------------------------7----------------------|
 B|-------------------------------------------------|
  |
  |GTR II
c#|-------------------------------------------------|
G#|-------------------------------------------------|
 E|-------------------------------------------------|
 B|--2-----2-----2-----2-----0-----0-----0-----0----|
F#|--2-----2-----2-----2-----0-----0-----0-----0----|
 B|--2-----2-----2-----2-----0-----0-----0-----0----|

   GTR I
c#|--------0-----------0-----------0-----------0----|
G#|--------------3-----------------------3----------|
 E|-------------------------------------------------|
 B|--2-----------------------2----------------------|
F#|-------------------------------------------------|
 B|-------------------------------------------------|
  |
  |GTR II
c#|-------------------------------------------------|
G#|-------------------------------------------------|
 E|-------------------------------------------------|
 B|--7-----7-----7-----7-----7--5--------5--4-------|
F#|--7-----7-----7-----7-----7--5--------5--4-------|
 B|--7-----7-----7-----7-----7--5--------5--4-------|

   GTR I
c#|--------0-----------0-----------5-----------5----|
G#|--------------3-----------------------8----------|
 E|-------------------------------------------------|
 B|--2----------------------------------------------|
F#|--------------------------7----------------------|
 B|-------------------------------------------------|
  |
  |GTR II
c#|-------------------------------------------------|
G#|-------------------------------------------------|
 E|-------------------------------------------------|
 B|--2-----2-----2-----2-----0-----0-----0-----0----|
F#|--2-----2-----2-----2-----0-----0-----0-----0----|
 B|--2-----2-----2-----2-----0-----0-----0-----0----|

   GTR I
c#|--------0-----------0-----0----------------------|
G#|--------------3----------------------------------|
 E|-------------------------------------------------|
 B|--2----------------------------------------------|
F#|-------------------------------------------------|
 B|-------------------------------------------------|
  |
  |GTR II
c#|-------------------------------------------------|
G#|-------------------------------------------------|
 E|-------------------------------------------------|
 B|--7-----7-----7-----7-----7\---------------------|
F#|--7-----7-----7-----7-----7\---------------------|
 B|--7-----7-----7-----7-----7\---------------------|

Verse

   GTR I,II
c#|--------------------------0----------------------|
G#|--------------------------------------3----------|
 E|-------------------------------------------------|
 B|--2----------------------------------------------|
F#|--2----------------------------------------------|
 B|--2----------------------------------------------|

   GTR I,II
c#|--------------------------0-----------------0----|
G#|-----------------------------------8-------------|
 E|-------------------------------------------------|
 B|--7----------------------------------------------|
F#|--7----------------------------------------------|
 B|--7----------------------------------------------|

   GTR I,II
c#|--------------------------0----------------------|
G#|--------------------------------------3----------|
 E|-------------------------------------------------|
 B|--2----------------------------------------------|
F#|--2----------------------------------------------|
 B|--2----------------------------------------------|

   GTR I,II
c#|--------------------------0----------------------|
G#|-----------------------------------8-------------|
 E|-------------------------------------------------|
 B|--7----------------------------------------------|
F#|--7----------------------------------------------|
 B|--7--------------------------------------0-------|

   GTR I,II
c#|--------------------------0----------------------|
G#|--------------------------------------3----------|
 E|-------------------------------------------------|
 B|--2----------------------------------------------|
F#|--2----------------------------------------------|
 B|--2----------------------------------------------|
  |
  |GTR III
c#|--------------------------0----------------------|
G#|--------------------------------------3----------|
 E|-------------------------------------------------|
 B|-------------------------------------------------|
F#|-------------------------------------------------|
 B|-------------------------------------------------|

   GTR I,II
c#|--------------------------0-----------------0----|
G#|-----------------------------------8-------------|
 E|-------------------------------------------------|
 B|--7----------------------------------------------|
F#|--7----------------------------------------------|
 B|--7----------------------------------------------|
  |
  |GTR III
c#|--------------------------0-----------------0----|
G#|-----------------------------------8-------------|
 E|-------------------------------------------------|
 B|-------------------------------------------------|
F#|-------------------------------------------------|
 B|-------------------------------------------------|

   GTR I,II
c#|--------------------------0----------------------|
G#|--------------------------------------3----------|
 E|-------------------------------------------------|
 B|--2----------------------------------------------|
F#|--2----------------------------------------------|
 B|--2----------------------------------------------|
  |
  |GTR III
c#|--------------------------0----------------------|
G#|--------------------------------------3----------|
 E|-------------------------------------------------|
 B|-------------------------------------------------|
F#|-------------------------------------------------|
 B|-------------------------------------------------|

   GTR I
c#|-------------------------------------------------|
G#|-------------------------------------------------|
 E|-------------------------------------------------|
 B|--7----------------------------------------------|
F#|--7----------------------------------------------|
 B|--7----------------------------------------------|
  |
  |GTR II
c#|-------------------------------------------------|
G#|-------------------------------------------------|
 E|-------------------------------------------------|
 B|--7\---------------------------------------------|
F#|--7\----------------------Pickslide--------------|
 B|--7\----------------------Pickslide--------------|

Chorus

   GTR I
c#|--------0-----------0-----------5-----------5----|
G#|--------------3-----------------------8----------|
 E|-------------------------------------------------|
 B|--2----------------------------------------------|
F#|--------------------------7----------------------|
 B|-------------------------------------------------|
  |
  |GTR II
c#|-------------------------------------------------|
G#|-------------------------------------------------|
 E|-------------------------------------------------|
 B|--2-----2-----2-----2-----0-----0-----0-----0----|
F#|--2-----2-----2-----2-----0-----0-----0-----0----|
 B|--2-----2-----2-----2-----0-----0-----0-----0----|

   GTR I
c#|--------0-----------0-----------0-----------0----|
G#|--------------3-----------------------3----------|
 E|-------------------------------------------------|
 B|--2-----------------------2----------------------|
F#|-------------------------------------------------|
 B|-------------------------------------------------|
  |
  |GTR II
c#|-------------------------------------------------|
G#|-------------------------------------------------|
 E|-------------------------------------------------|
 B|--7-----7-----7-----7-----7--5--------5--4-------|
F#|--7-----7-----7-----7-----7--5--------5--4-------|
 B|--7-----7-----7-----7-----7--5--------5--4-------|

   GTR I
c#|--------0-----------0-----------5-----------5----|
G#|--------------3-----------------------8----------|
 E|-------------------------------------------------|
 B|--2----------------------------------------------|
F#|--------------------------7----------------------|
 B|-------------------------------------------------|
  |
  |GTR II
c#|-------------------------------------------------|
G#|-------------------------------------------------|
 E|-------------------------------------------------|
 B|--2-----2-----2-----2-----0-----0-----0-----0----|
F#|--2-----2-----2-----2-----0-----0-----0-----0----|
 B|--2-----2-----2-----2-----0-----0-----0-----0----|

   GTR I
c#|--------0-----------0-----------0-----------0----|
G#|--------------3-----------------------3----------|
 E|-------------------------------------------------|
 B|--2-----------------------2----------------------|
F#|-------------------------------------------------|
 B|-------------------------------------------------|
  |
  |GTR II
c#|-------------------------------------------------|
G#|-------------------------------------------------|
 E|-------------------------------------------------|
 B|--7-----7-----7-----7--------0--0--0-----0--0--0-|
F#|--7-----7-----7-----7--------0--0--0-----0--0--0-|
 B|--7-----7-----7-----7--------0--0--0-----0--0--0-|

   GTR I
c#|--------0-----------0-----------5-----------5----|
G#|--------------3-----------------------8----------|
 E|-------------------------------------------------|
 B|--2----------------------------------------------|
F#|--------------------------7----------------------|
 B|-------------------------------------------------|
  |
  |GTR II
c#|-------------------------------------------------|
G#|-------------------------------------------------|
 E|-------------------------------------------------|
 B|--2-----2-----2-----2-----0-----0-----0-----0----|
F#|--2-----2-----2-----2-----0-----0-----0-----0----|
 B|--2-----2-----2-----2-----0-----0-----0-----0----|

   GTR I
c#|--------0-----------0-----------0-----------0----|
G#|--------------3-----------------------3----------|
 E|-------------------------------------------------|
 B|--2-----------------------2----------------------|
F#|-------------------------------------------------|
 B|-------------------------------------------------|
  |
  |GTR II
c#|-------------------------------------------------|
G#|-------------------------------------------------|
 E|-------------------------------------------------|
 B|--7-----7-----7-----7-----7--5--------5--4-------|
F#|--7-----7-----7-----7-----7--5--------5--4-------|
 B|--7-----7-----7-----7-----7--5--------5--4-------|

   GTR I
c#|--------0-----------0-----------5-----------5----|
G#|--------------3-----------------------8----------|
 E|-------------------------------------------------|
 B|--2----------------------------------------------|
F#|--------------------------7----------------------|
 B|-------------------------------------------------|
  |
  |GTR II
c#|-------------------------------------------------|
G#|-------------------------------------------------|
 E|-------------------------------------------------|
 B|--2-----2-----2-----2-----0-----0-----0-----0----|
F#|--2-----2-----2-----2-----0-----0-----0-----0----|
 B|--2-----2-----2-----2-----0-----0-----0-----0----|

   GTR I
c#|--------0-----------0-----0----------------------|
G#|--------------3----------------------------------|
 E|-------------------------------------------------|
 B|--2----------------------------------------------|
F#|-------------------------------------------------|
 B|-------------------------------------------------|
  |
  |GTR II
c#|-------------------------------------------------|
G#|-------------------------------------------------|
 E|-------------------------------------------------|
 B|--7-----7-----7-----7-----7----------------------|
F#|--7-----7-----7-----7-----7----------------------|
 B|--7-----7-----7-----7-----7----------------------|

Bridge

   GTR I
c#|-------------------------------------------------|
G#|-------------------------------------------------|
 E|-------------------------------------------------|
 B|--0--2--2--0--2--2--0--2--2--0--2--2--0--2--2--0-|
F#|--0--2--2--0--2--2--0--2--2--0--2--2--0--2--2--0-|
 B|--0--2--2--0--2--2--0--2--2--0--2--2--0--2--2--0-|
  |
  |GTR II
c#|-------------------------------------------------|
G#|-------------------------------------------------|
 E|-------------------------------------------------|
 B|-------------------------------------------------|
F#|--5--7--7--5--7--7--5--7--7--5--7--7--5--7--7--5-|
 B|-------------------------------------------------|

   GTR I
c#|-------------------------------------------------|
G#|-------------------------------------------------|
 E|-------------------------------------------------|
 B|--7--7--7--8--7--5\------------------------------|
F#|--7--7--7--8--7--5\------------------------------|
 B|--7--7--7--8--7--5\------------------------------|
  |
  |GTR II
c#|-------------------------------------------------|
G#|-------------------------------------------------|
 E|-------------------------------------------------|
 B|-------------------------------------------------|
F#|--7br7--5----------------------------------------|
 B|-----------8--7--5~------------------------------|

   GTR I
c#|-------------------------------------------------|
G#|-------------------------------------------------|
 E|-------------------------------------------------|
 B|--0--2--2--0--2--2--0--2--2--0--2--2--0--2--2--0-|
F#|--0--2--2--0--2--2--0--2--2--0--2--2--0--2--2--0-|
 B|--0--2--2--0--2--2--0--2--2--0--2--2--0--2--2--0-|
  |
  |GTR II
c#|-------------------------------------------------|
G#|-------------------------------------------------|
 E|-------------------------------------------------|
 B|-------------------------------------------------|
F#|--5--7--7--5--7--7--5--7--7--5--7--7--5--7--7--5-|
 B|-------------------------------------------------|

   GTR I
c#|-------------------------------------------------|
G#|-------------------------------------------------|
 E|-------------------------------------------------|
 B|--7--7--7--8--7--5\------------------------------|
F#|--7--7--7--8--7--5\------------------------------|
 B|--7--7--7--8--7--5\------------------------------|
  |
  |GTR II
c#|-------------------------------------------------|
G#|-------------------------------------------------|
 E|-------------------------------------------------|
 B|-------------------------------------------------|
F#|--7br7--5----------------------------------------|
 B|-----------8--7--5~------------------------------|

   GTR I
c#|-------------------------------------------------|
G#|-------------------------------------------------|
 E|-------------------------------------------------|
 B|--0--2--2--0--2--2--0--2--2--0--2--2--0--2--2--0-|
F#|--0--2--2--0--2--2--0--2--2--0--2--2--0--2--2--0-|
 B|--0--2--2--0--2--2--0--2--2--0--2--2--0--2--2--0-|
  |
  |GTR II
c#|-------------------------------------------------|
G#|-------------------------------------------------|
 E|-------------------------------------------------|
 B|-------------------------------------------------|
F#|--5--7--7--5--7--7--5--7--7--5--7--7--5--7--7--5-|
 B|-------------------------------------------------|

   GTR I
c#|-------------------------------------------------|
G#|-------------------------------------------------|
 E|-------------------------------------------------|
 B|--7--7--7--8--7--5\------------------------------|
F#|--7--7--7--8--7--5\------------------------------|
 B|--7--7--7--8--7--5\------------------------------|
  |
  |GTR II
c#|-------------------------------------------------|
G#|-------------------------------------------------|
 E|-------------------------------------------------|
 B|-------------------------------------------------|
F#|--7br7--5----------------------------------------|
 B|-----------8--7--5~------------------------------|

   GTR I
c#|-------------------------------------------------|
G#|-------------------------------------------------|
 E|-------------------------------------------------|
 B|--0--2--2--0--2--2--0--2--2--0--2--2--0--2--2--0-|
F#|--0--2--2--0--2--2--0--2--2--0--2--2--0--2--2--0-|
 B|--0--2--2--0--2--2--0--2--2--0--2--2--0--2--2--0-|
  |
  |GTR II
c#|-------------------------------------------------|
G#|-------------------------------------------------|
 E|-------------------------------------------------|
 B|-------------------------------------------------|
F#|--5--7--7--5--7--7--5--7--7--5--7--7--5--7--7--5-|
 B|-------------------------------------------------|

   GTR I
c#|-------------------------------------------------|
G#|-------------------------------------------------|
 E|-------------------------------------------------|
 B|--------------------------------------7--7--7--7-|
F#|--7--7--7--7--7--7--7--7--7--7--7--7--7--7--7--7-|
 B|--7--7--7--7--7--7--7--7--7--7--7--7--7--7--7--7-|
  |  .  .  .  .  .  .  .  .  .  .  .  .  
  |GTR II
c#|-------------------------------------------------|
G#|-------------------------------------------------|
 E|-------------------------------------------------|
 B|--------5--7--7br7--5-----------5--7--7br7--5----|
F#|--5--7-----------------7--5--7-----------------7-|
 B|-------------------------------------------------|

Guitar Solo

   GTR I
c#|-------------------------------------------------|
G#|-------------------------------------------------|
 E|-2brp0-----2brp0-----2brp0------2brp0----0-------|
 B|------2p0-------2p0--------2p0--------2p0---2--2-|
F#|-------------------------------------------------|
 B|-------------------------------------------------|
  |
  |GTR II
c#|-------------------------------------------------|
G#|-------------------------------------------------|
 E|-------------------------------------------------|
 B|--2--2--2--2--2--2--2--2--2--2--2--2--2--2--2--2-|
F#|--2--2--2--2--2--2--2--2--2--2--2--2--2--2--2--2-|
 B|--2--2--2--2--2--2--2--2--2--2--2--2--2--2--2--2-|

   GTR I
c#|--------0----------------------------------------|
G#|-------------------------------------------------|
 E|--2/-3--------------9-12--9--9-------11~---------|
 B|----------------12-------------12--9-------------|
F#|-------------------------------------------------|
 B|-------------------------------------------------|
  |
  |GTR II
c#|-------------------------------------------------|
G#|-------------------------------------------------|
 E|-------------------------------------------------|
 B|--7--7--7--7--7--7--7--7--7--7--7--7--7--7--7--7-|
F#|--7--7--7--7--7--7--7--7--7--7--7--7--7--7--7--7-|
 B|--7--7--7--7--7--7--7--7--7--7--7--7--7--7--7--7-|

   GTR I
c#|-------------------------------------------------|
G#|-------------------------------------------------|
 E|----------------------12-------12-14br14p12------|
 B|----12----14----12-14----14-12-------------14p12-|
F#|-14----14----------------------------------------|
 B|-------------------------------------------------|
  |  .     .        .  .     
  |GTR II
c#|-------------------------------------------------|
G#|-------------------------------------------------|
 E|-------------------------------------------------|
 B|--2--2--2--2--2--2--2--2--2--2--2--2--2--2--2--2-|
F#|--2--2--2--2--2--2--2--2--2--2--2--2--2--2--2--2-|
 B|--2--2--2--2--2--2--2--2--2--2--2--2--2--2--2--2-|

   GTR I
c#|-------------------------------------------------|
G#|-------------------------------15b---------------|
 E|14br14p12-----14br14p12--------------------------|
 B|---------14p12---------14p12---------------------|
F#|-------------------------------------------------|
 B|-------------------------------------------------|
  |
  |GTR II
c#|-------------------------------------------------|
G#|-------------------------------------------------|
 E|-------------------------------------------------|
 B|--7--7--7--7--7--7--7--7--------------7--7--7--7-|
F#|--7--7--7--7--7--7--7--7--7--7--7--7--7--7--7--7-|
 B|--7--7--7--7--7--7--7--7--7--7--7--7--7--7--7--7-|
                             .  .  .  .   

Break

   GTR III
c#|-------------------------------------------------|
G#|-------------------------------------------------|
 E|-------------------------------------------------|
 B|--5-----------------------7----------------------|
F#|--5-----------------------7----------------------|
 B|--5-----------------------7----------------------|

   GTR III
c#|-------------------------------------------------|
G#|-------------------------------------------------|
 E|-------------------------------------------------|
 B|--5-----------------------7----------------------|
F#|--5-----------------------7----------------------|
 B|--5-----------------------7----------------------|

Chorus 2

   GTR I
c#|--------0-----------0-----------5-----------5----|
G#|--------------3-----------------------8----------|
 E|-------------------------------------------------|
 B|--2----------------------------------------------|
F#|--------------------------7----------------------|
 B|-------------------------------------------------|
  |
  |GTR II
c#|-------------------------------------------------|
G#|-------------------------------------------------|
 E|-------------------------------------------------|
 B|--2-----2-----2-----2-----0-----0-----0-----0----|
F#|--2-----2-----2-----2-----0-----0-----0-----0----|
 B|--2-----2-----2-----2-----0-----0-----0-----0----|

   GTR I
c#|--------0-----------0-----------0-----------0----|
G#|--------------3-----------------------3----------|
 E|-------------------------------------------------|
 B|--2-----------------------2----------------------|
F#|-------------------------------------------------|
 B|-------------------------------------------------|
  |
  |GTR II
c#|-------------------------------------------------|
G#|-------------------------------------------------|
 E|-------------------------------------------------|
 B|--7-----7-----7-----7-----7--5--------5--4-------|
F#|--7-----7-----7-----7-----7--5--------5--4-------|
 B|--7-----7-----7-----7-----7--5--------5--4-------|

   GTR I
c#|--------0-----------0-----------5-----------5----|
G#|--------------3-----------------------8----------|
 E|-------------------------------------------------|
 B|--2----------------------------------------------|
F#|--------------------------7----------------------|
 B|-------------------------------------------------|
  |
  |GTR II
c#|-------------------------------------------------|
G#|-------------------------------------------------|
 E|-------------------------------------------------|
 B|--2-----2-----2-----2-----0-----0-----0-----0----|
F#|--2-----2-----2-----2-----0-----0-----0-----0----|
 B|--2-----2-----2-----2-----0-----0-----0-----0----|

   GTR I
c#|--------0-----------0-----0----------------------|
G#|--------------3--------------3--0----------------|
 E|-----------------------------------3--2--0-------|
 B|--2-----------------------------------------2--0-|
F#|-------------------------------------------------|
 B|-------------------------------------------------|
  |
  |GTR II
c#|-------------------------------------------------|
G#|-------------------------------------------------|
 E|-------------------------------------------------|
 B|--7-----7-----7-----7----------------------------|
F#|--7-----7-----7-----7----------------------------|
 B|--7-----7-----7-----7----------------------------|

   GTR I
c#|--------0-----------0-----------5-----------5----|
G#|--------------3-----------------------8----------|
 E|-------------------------------------------------|
 B|--2----------------------------------------------|
F#|--------------------------7----------------------|
 B|-------------------------------------------------|
  |
  |GTR II
c#|-------------------------------------------------|
G#|-------------------------------------------------|
 E|-------------------------------------------------|
 B|--2-----2-----2-----2-----0-----0-----0-----0----|
F#|--2-----2-----2-----2-----0-----0-----0-----0----|
 B|--2-----2-----2-----2-----0-----0-----0-----0----|

   GTR I
c#|--------0-----------0-----------0-----------0----|
G#|--------------3-----------------------3----------|
 E|-------------------------------------------------|
 B|--2-----------------------2----------------------|
F#|-------------------------------------------------|
 B|-------------------------------------------------|
  |
  |GTR II
c#|-------------------------------------------------|
G#|-------------------------------------------------|
 E|-------------------------------------------------|
 B|--7-----7-----7-----7-----7--5--------5--4-------|
F#|--7-----7-----7-----7-----7--5--------5--4-------|
 B|--7-----7-----7-----7-----7--5--------5--4-------|

   GTR I
c#|--------0-----------0-----------5-----------5----|
G#|--------------3-----------------------8----------|
 E|-------------------------------------------------|
 B|--2----------------------------------------------|
F#|--------------------------7----------------------|
 B|-------------------------------------------------|
  |
  |GTR II
c#|-------------------------------------------------|
G#|-------------------------------------------------|
 E|-------------------------------------------------|
 B|--2-----2-----2-----2-----0-----0-----0-----0----|
F#|--2-----2-----2-----2-----0-----0-----0-----0----|
 B|--2-----2-----2-----2-----0-----0-----0-----0----|

   GTR I
c#|--------0-----------0----------------------------|
G#|--------------3----------------------------------|
 E|-------------------------------------------------|
 B|--2----------------------------------------------|
F#|-------------------------------------------------|
 B|-------------------------------------------------|
  |
  |GTR II
c#|-------------------------------------------------|
G#|-------------------------------------------------|
 E|-------------------------------------------------|
 B|--7-----7-----7-----7-----7--7-----7--7--7--7--7-|
F#|--7-----7-----7-----7-----7--7-----7--7--7--7--7-|
 B|--7-----7-----7-----7-----7--7-----7--7--7--7--7-|

Outro

   GTR I
c#|--------0-----------0-----------5-----------5----|
G#|--------------3-----------------------8----------|
 E|-------------------------------------------------|
 B|--2----------------------------------------------|
F#|--------------------------7----------------------|
 B|-------------------------------------------------|
  |
  |GTR II
c#|-------------------------------------------------|
G#|-------------------------------------------------|
 E|-------------------------------------------------|
 B|-------------------------------------------------|
F#|--5--7--7--5--7--7--5--7--7--5--7--7--5--7--7--5-|
 B|-------------------------------------------------|
  |
  |GTR IV
c#|-------------------------------------------------|
G#|-------------------------------------------------|
 E|-------------------------------------------------|
 B|--0--2--2--0--2--2--0--2--2--0--2--2--0--2--2--0-|
F#|--0--2--2--0--2--2--0--2--2--0--2--2--0--2--2--0-|
 B|--0--2--2--0--2--2--0--2--2--0--2--2--0--2--2--0-|


   GTR I
c#|--------0-----------0-----------0-----------0----|
G#|--------------3-----------------------3----------|
 E|-------------------------------------------------|
 B|--2-----------------------2----------------------|
F#|-------------------------------------------------|
 B|-------------------------------------------------|
  |
  |GTR II
c#|-------------------------------------------------|
G#|-------------------------------------------------|
 E|-------------------------------------------------|
 B|--5br------5br------5br--------------------------|
F#|--------------------------------------0----------|
 B|-----------------------------0--3--5-----2~------|
  |
  |GTR IV
c#|-------------------------------------------------|
G#|-------------------------------------------------|
 E|-------------------------------------------------|
 B|--7--7--7--7--7--7--7--7--7--7--7--8--7--5--5--5-|
F#|--7--7--7--7--7--7--7--7--7--7--7--8--7--5--5--5-|
 B|--7--7--7--7--7--7--7--7--7--7--7--8--7--5--5--5-|

   GTR I
c#|--------0-----------0-----------5-----------5----|
G#|--------------3-----------------------8----------|
 E|-------------------------------------------------|
 B|--2----------------------------------------------|
F#|--------------------------7----------------------|
 B|-------------------------------------------------|
  |
  |GTR II
c#|-------------------------------------------------|
G#|-------------------------------------------------|
 E|-------------------------------------------------|
 B|-------------------------------------------------|
F#|--5--7--7--5--7--7--5--7--7--5--7--7--5--7--7--5-|
 B|-------------------------------------------------|
  |
  |GTR IV
c#|-------------------------------------------------|
G#|-------------------------------------------------|
 E|-------------------------------------------------|
 B|--0--2--2--0--2--2--0--2--2--0--2--2--0--2--2--0-|
F#|--0--2--2--0--2--2--0--2--2--0--2--2--0--2--2--0-|
 B|--0--2--2--0--2--2--0--2--2--0--2--2--0--2--2--0-|


   GTR I
c#|--------0-----------0----------------------------|
G#|--------------3----------------------------------|
 E|-------------------------------------------------|
 B|--2-----------------------2----------------------|
F#|-------------------------------------------------|
 B|-------------------------------------------------|
  |
  |GTR II
c#|-------------------------------------------------|
G#|-------------------------------------------------|
 E|-------------------------------------------------|
 B|-------------------------------------------------|
F#|--7br7--5----------------------------------------|
 B|-----------8--7--5--7--8--7~---------------------|
  |
  |GTR IV
c#|-------------------------------------------------|
G#|-------------------------------------------------|
 E|-------------------------------------------------|
 B|--7--7--7--5--7--8--7--5--7\---------------------|
F#|--7--7--7--5--7--8--7--5--7\---------------------|
 B|--7--7--7--5--7--8--7--5--7\---------------------|


| b  bend
| r  release bend
|trp triplet
|PH. pinch harmonic
|fbk feedback
| .  palm-mute
| /  slide up
| \  slide down
| h  hammer-on
| p  pull-off
| ~  vibrato
|(7) harmonic
| x  Mute note
===============================================================================

            
            
Suggest correction
Creating personal tab
Creating personal tab
You can edit any tab online and save it as your Personal.

You can edit, replace or remove any tab part or add personal notes – all changes will be seen only by you.

Personal tabs can be accessed anytime from any device, even offline.
Learn more »
Give kudos to tab author, rate the tab!
1 2 3 4 5
comments
print report bad tab
guest
You may want to rate the tab now too:
select rating
Wanna post a correction for this tab? Suggest correction