Oops, an error
Loading. Please wait.

So Happy solo tab

version 1
version 1

Solo

Whole song

Interactive

2,284 views 1 this week
no commentswrite comment
1 2 3 4 5
3 more votes to show rating
add to favorites
×
Save as Personal and add changes to this tab that will be seen only by you. Learn more ›
×
You can save this tab as Personal to edit and correct it or add notes. All changes will be seen only by you. Learn more »
launch autoscroll
font size
0
reset
how to read this tab
guitar tuner
edit
Autoscroll
slow
fast
+/-
esc
set tempo
stop
This is their best song yet, and im really
surprised nobody's tabbed it yet. I couldn't 
figure out the chord progression, but the solo's
pretty easy and fun to play.


Tuning = really screwed up  
(Drop D + half step down, i think***)

Db, Ab, Db, Gb, Bb, Eb


Notation: pretty simple

b = bend
p = pull off
/ = slide up
\ = slide down
~ = vibrato
<---anything else is explained above--->


 with wah & distortion, 2:59
|------------------------------------------|
|--------13b~~13b~~13b~~13b~~13bp10--------|
|--/14\------------------------------12~~--|
|------------------------------------------|
|------------------------------------------|
|------------------------------------------|

                           <------slight palm mute-------->
|----------------------------------------------------------------|
|----------------------------------------------------------------|
|--12br--12br--12br--12br--10------------------------------------|
|-----------------------------12-10-12-10----10------------------|
|-----------------------------------------12----12-10-12-10-8~~--|
|----------------------------------------------------------------|


|--------------------------------------|
|--------------------------------------|
|--------------------------------------|
|------------------------10~~-10-12~~--|
|--8~~-8-10~~-10-12~~-12---------------|
|--------------------------------------|

                        
|-----------------------------------|
|--15-----17-----18-----20brb~~~~\--|
|--17b~~--19b~~--20b~~--------------|
|-----------------------------------|
|-----------------------------------|
|-----------------------------------|


There it is. Sounds really great if you improvise in
the same scale. PLEASE, SOMEONE POST THE CHORDS TO 
THIS SONG SO I CAN LEARN IT COMPLETELY! (anyone who does
is free to use this solo in their tab).


Tabbed by Z
 

            
            
Suggest correction
Creating personal tab
Creating personal tab
You can edit any tab online and save it as your Personal.

You can edit, replace or remove any tab part or add personal notes – all changes will be seen only by you.

Personal tabs can be accessed anytime from any device, even offline.
Learn more »
Give kudos to tab author, rate the tab!
1 2 3 4 5
comments
print report bad tab
guest
Wanna post a correction for this tab? Suggest correction