Oops, an error
Loading. Please wait.

So Happy tab

version 1
version 1

Whole song

Interactive

12,710 views 6 this week
5 commentsread comments
1 2 3 4 5
x 3
add to favorites
×
Save as Personal and add changes to this tab that will be seen only by you. Learn more ›
×
You can save this tab as Personal to edit and correct it or add notes. All changes will be seen only by you. Learn more »
launch autoscroll
font size
0
reset
how to read this tab
guitar tuner
edit
Autoscroll
slow
fast
+/-
esc
set tempo
stop
 Hi this song is one of my favorites and also check out there new album
SCARS & SOUVENIRS, check out Got It Made and Crutch. But i am alost the maker of the 
song tab of Freeze by HOUR CAST.
 From:iTunes

Guitar 1 (C G C F A D)
Guitar 2 (C G C F A D)

Intro:

Guitar 1
D-----------------------------------------------------------------------|
A-0-7-0-0-8-0-0-0-8-0-11-0-0-10-0-0-9-0-7-0-0-7-0-0-7-0-7-0-7-0-0-7-0-0-|
F-----------------------------------------------------------------------|
C-----------------------------------------------------------------------|
G-----------------------------------------------------------------------|
C-----------------------------------------------------------------------|

Guitar 2
D------------------------------------------------------------------|
A------------------------------------------------------------------|
F------------------------------------------------------------------|
C------------------------------------------------------------------|
G------------------------------------------------------------------|
C------------------------------------------------------------------|

Guitar 1
D------------------------------------------------------------------|
A-0-9-0-0-9-0-0-8-0-11-0-0-11-0-0-10-0-7-0-0-7-0-0-7-0-7-0-7-0-0-7-|
F------------------------------------------------------------------|
C------------------------------------------------------------------|
G------------------------------------------------------------------|
C------------------------------------------------------------------|

Guitar 2
D-----------------------------------------------|
A-----------------------------------------------|
F-----------------------------------------------|
C-----------------------------------------------|
G---------------------------------------9/0\9/0-|
C-----------------------------------------------|

Guitar 1
D------------------------------------|
A------------------------------------|
F------------------------------------|
C-1-1-1-4-4-4-1-1-1-4-4-1-7-7-7-7----|   x2
G-1-1-1-4-4-4-1-1-1-4-4-1-7-7-7-7----|
C-1-1-1-4-4-4-1-1-1-4-4-1-7-7-7-7----|

Guitar 2
D-----------------------------------|
A-----------------------------------|
F-----------------------------------|
C-1-1-1-4-4-4-1-1-1-4-4-1-7-7-7-7---|  x4
G-1-1-1-4-4-4-1-1-1-4-4-1-7-7-7-7---|
C-1-1-1-4-4-4-1-1-1-4-4-1-7-7-7-7---|

Guitar 1 After the x2
D----------------------------------------|
A-4-4-4-7-7-7-4-4-4-7-7-7-10-10-10-10----|
F----------------------------------------|
C----------------------------------------|   x2
G----------------------------------------|
C----------------------------------------|

Verse 1 PUT THE BOTTLE DOWN, FINALLY GOT SOMETHIN' TO SAY

Guitar 1, Guitar 2
D----------------------------------------------------------------------|
A----------------------------------------------------------------------|
F----------------------------------------------------------------------|
C-1pm-1pm-1pm-4pm-4pm-4pm-1pm-1pm-1pm-4pm-4pm-4pm-1pm-7pm-7pm-7pm-7pm--| x3
G-1pm-1pm-1pm-4pm-4pm-4pm-1pm-1pm-1pm-4pm-4pm-4pm-1pm-7pm-7pm-7pm-7pm--|
C-1pm-1pm-1pm-4pm-4pm-4pm-1pm-1pm-1pm-4pm-4pm-4pm-1pm-7pm-7pm-7pm-7pm--|

Guitar 1
D---------------------------------------------------------------|
A-------------------------------------------------10-10-10-10---|
F---------------------------------------------------------------|
C-1pm-1pm-1pm-4pm-4pm-4pm-1pm-1pm-1pm-4pm-4pm-4pm---------------|  x3
G-1pm-1pm-1pm-4pm-4pm-4pm-1pm-1pm-1pm-4pm-4pm-4pm---------------|
C-1pm-1pm-1pm-4pm-4pm-4pm-1pm-1pm-1pm-4pm-4pm-4pm---------------|

Guitar 2
D----------------------------------------------------------------------|
A----------------------------------------------------------------------|
F----------------------------------------------------------------------|
C-1pm-1pm-1pm-4pm-4pm-4pm-1pm-1pm-1pm-4pm-4pm-4pm-1pm-7pm-7pm-7pm-7pm--|
G-1pm-1pm-1pm-4pm-4pm-4pm-1pm-1pm-1pm-4pm-4pm-4pm-1pm-7pm-7pm-7pm-7pm--| x3
C-1pm-1pm-1pm-4pm-4pm-4pm-1pm-1pm-1pm-4pm-4pm-4pm-1pm-7pm-7pm-7pm-7pm--|

Guitar 1 & 2
D---------------------------------------------------------------------|
A---------------------------------------------------------------------|
F---------------------------------------------------------------------|
C-1pm-1pm-1pm-4pm-4pm-4pm-1pm-1pm-1pm-4pm-4pm-4pm-1pm-7pm-7pm-7pm-7pm-|
G-1pm-1pm-1pm-4pm-4pm-4pm-1pm-1pm-1pm-4pm-4pm-4pm-1pm-7pm-7pm-7pm-7pm-|
C-1pm-1pm-1pm-4pm-4pm-4pm-1pm-1pm-1pm-4pm-4pm-4pm-1pm-7pm-7pm-7pm-7pm-|

Verse 2 EVER WONDER WHAT I BEEN THINKIN' ABOUT
D----------------------------------------------|
A----------------------------------------------|
F----------------------------------------------|
C-2-2-2-4-4-4-3-3-3-5-5-5-5-5-6~~-8~~-7~~-7~-6-|
G-2-2-2-4-4-4-3-3-3-5-5-5-5-5-6~~-8~~-7~~-7~-6-|
C----------------------------------------------|

Chorus I'M SO HAPPY ABOUT YOU...I'M FED UP AO GET UP AND GET OUT
 Not 100% Sure Of
Guitar 1 & 2
D--------------------------------------------------------------|
A--------------------------------------------------------------|
F--------------------------------------------------------------|
C-1-1-1-1-1-1-1-6-6-6-6-6-6-6-5-5-5-5-5-5-5-5-5-5-5-5-5-5-3-3--| x2
G-1-1-1-1-1-1-1-6-6-6-6-6-6-6-5-5-5-5-5-5-5-5-5-5-5-5-5-5-3-3--|
C-1-1-1-1-1-1-1-6-6-6-6-6-6-6-5-5-5-5-5-5-5-5-5-5-5-5-5-5-3-3--|

Guitar 1 & 2
D-------------------------------------------------------------|
A-------------------------------------------------------------|
F-------------------------------------------------------------|
C-1-1-1-1-1-1-1-6-6-6-6-6-6-6-5-5-5-5-5-5-5-3-3-3-3-3-3-3-2-2-|
G-1-1-1-1-1-1-1-6-6-6-6-6-6-6-5-5-5-5-5-5-5-3-3-3-3-3-3-3-2-2-|
C-1-1-1-1-1-1-1-6-6-6-6-6-6-6-5-5-5-5-5-5-5-3-3-3-3-3-3-3-2-2-|

Guitar 1
D-------------------------------------|
A-4-4-4-7-7-7-4-4-4-7-7-7-10-10-10-10-|
F-------------------------------------|
C-------------------------------------|
G-------------------------------------|
C-------------------------------------|

Guitar 2
D---------------------------------|
A---------------------------------|
F---------------------------------|
C-1-1-1-4-4-4-1-1-1-4-4-1-7-7-7-7-|
G-1-1-1-4-4-4-1-1-1-4-4-1-7-7-7-7-|
C-1-1-1-4-4-4-1-1-1-4-4-1-7-7-7-7-|

After This You Repeat Everthing Above, EXECPT INTRO! INTRO IS RIGHT BEFORE THE GUITAR 
WHICH I WILL DO RIGHT NOW!!!!!!!!!!!!!!

SOLO

Guitar 1
D---------------------------------------------------------------|
A-3/12\3--7~-7~-7~-/3~~-----------------------------------------|
F-----------------------7~-7~-7~-7-6-0-5-4-0-3-4-0-3-2-0-2-1-0~-|
C---------------------------------------------------------------|
G---------------------------------------------------------------|
C---------------------------------------------------------------|

Guitar 1
D--------------------12b-14b-15b-18fb-|
A-------------------------------------|
F-------------------------------------|
C-------------------------------------|
G-9b-11b-13b-15b-17b------------------|
C-------------------------------------|

Chorus I'M SO HAPPY ABOUT YOU...I'M FED UP SO GET UP AND GET OUT

Guitar 1
D-18fb let ring-----------------------------------------------|
A-------------------------------------------------------------|
F-------------------------------------------------------------|
C-----------------------------5-5-5-5-5-5-5-5-5-5-5-5-5-5-3-3-|
G-----------------------------5-5-5-5-5-5-5-5-5-5-5-5-5-5-3-3-|
C-----------------------------5-5-5-5-5-5-5-5-5-5-5-5-5-5-3-3-|

Guitar 2
D-------------------------------------------------------------|
A-------------------------------------------------------------|
F-------------------------------------------------------------|
C-1-1-1-1-1-1-1-6-6-6-6-6-6-6-5-5-5-5-5-5-5-5-5-5-5-5-5-5-3-3-|
G-1-1-1-1-1-1-1-6-6-6-6-6-6-6-5-5-5-5-5-5-5-5-5-5-5-5-5-5-3-3-|
C-1-1-1-1-1-1-1-6-6-6-6-6-6-6-5-5-5-5-5-5-5-5-5-5-5-5-5-5-3-3-|

Guitar 1
D-------------------------------------------------------------|
A-------------------------------------------------------------|
F-------------------------------------------------------------|
C-1-1-1-1-1-1-1-6-6-6-6-6-6-6-5-5-5-5-5-5-5-5-5-5-5-5-5-5-3-3-|
G-1-1-1-1-1-1-1-6-6-6-6-6-6-6-5-5-5-5-5-5-5-5-5-5-5-5-5-5-3-3-|
C-1-1-1-1-1-1-1-6-6-6-6-6-6-6-5-5-5-5-5-5-5-5-5-5-5-5-5-5-3-3-|

Guitar 2
D-------------------------------------------------------------|
A-------------------------------------------------------------|
F-------------------------------------------------------------|
C-1-1-1-1-1-1-1-6-6-6-6-6-6-6-5-5-5-5-5-5-5-5-5-5-5-5-5-5-3-3-|
G-1-1-1-1-1-1-1-6-6-6-6-6-6-6-5-5-5-5-5-5-5-5-5-5-5-5-5-5-3-3-|
C-1-1-1-1-1-1-1-6-6-6-6-6-6-6-5-5-5-5-5-5-5-5-5-5-5-5-5-5-3-3-|

Guitar 1 & 2
D-------------------------------------------------------------|
A-------------------------------------------------------------|
F-------------------------------------------------------------|
C-1-1-1-1-1-1-1-6-6-6-6-6-6-6-5-5-5-5-5-5-5-3-3-3-3-3-3-3-2-2-|
G-1-1-1-1-1-1-1-6-6-6-6-6-6-6-5-5-5-5-5-5-5-3-3-3-3-3-3-3-2-2-|
C-1-1-1-1-1-1-1-6-6-6-6-6-6-6-5-5-5-5-5-5-5-3-3-3-3-3-3-3-2-2-|

Guitar 1
D---------------------------------------|
A-4-4-4-7-7-7-4-4-4-7-7-7-10-10-10-10---|
F---------------------------------------|
C---------------------------------------|  x2
G---------------------------------------|
C---------------------------------------|

Guitar 2
D---------------------------------|
A---------------------------------|
F---------------------------------|
C-1-1-1-4-4-4-1-1-1-4-4-1-7-7-7-7-|
G-1-1-1-4-4-4-1-1-1-4-4-1-7-7-7-7-|
C-1-1-1-4-4-4-1-1-1-4-4-1-7-7-7-7-|

Ending (Same As Intro)

Guitar 1
D---------------------------------------------------------------------|
A-0-7-0-0-8-0-0-8-0-11-0-0-10-0-0-9-0-7-0-0-7-0-0-7-0-7-0-7-0-0-7-0-0-|
F---------------------------------------------------------------------|
C---------------------------------------------------------------------|
G---------------------------------------------------------------------|
C---------------------------------------------------------------------|

Guitar 1
D------------------------------------------------------------------------|
A-0-9-0-0-9-0-0-8-0-11-0-0-11-0-0-10-0-0-7-0-0-7-0-0-7-0-7-0-7-0-0-7-0-0-|
F------------------------------------------------------------------------|
C------------------------------------------------------------------------|
G------------------------------------------------------------------------|
C------------------------------------------------------------------------|

If you know any ways that i didn't do it right comment me so that i can fix it, or you 
make your own tab. See Yah, and remember....ROCK OUT!!!!!!!

            
            
Suggest correction
Creating personal tab
Creating personal tab
You can edit any tab online and save it as your Personal.

You can edit, replace or remove any tab part or add personal notes – all changes will be seen only by you.

Personal tabs can be accessed anytime from any device, even offline.
Learn more »
Give kudos to tab author, rate the tab!
1 2 3 4 5
comments
print report bad tab
5 comments total. Showing first comments.
0 reply
cerveza 36 Apr 20, 2008 10:15 AM

It's tuned to drop D down 1/2 step.
and that open note pattern you have at the start is a picked arpeggio on more than one string

0 reply
THEguitarGOD789 10 May 18, 2008 11:24 AM

nice dude. it looks great. i'd try it but i can't play for 3 weeks cauz i broke my thumb. i'll try it when the cast is off! rock on!!!

0 reply
phasesevenfold 213 Jul 14, 2008 09:28 AM

TOAD copied Puddle of Mudd's "Famous" for this intro. they sound too similar.
good job tho.
just tune it Drop Db and you're good

guest
Wanna post a correction for this tab? Suggest correction