Oops, an error
Loading. Please wait.

So Happy tab

version 3
version 3

Whole song

Interactive

7,165 views 1 this week
no commentswrite comment
1 2 3 4 5
2 more votes to show rating
add to favorites
×
Save as Personal and add changes to this tab that will be seen only by you. Learn more ›
×
You can save this tab as Personal to edit and correct it or add notes. All changes will be seen only by you. Learn more »
launch autoscroll
font size
0
reset
how to read this tab
guitar tuner
edit
Autoscroll
slow
fast
+/-
esc
set tempo
stop
So Happy
Theory of a Deadman
Scars & Souvenirs (2008)

So Happy: written by Tyler Connolly, Dean Back, Dave Brenner

UPDATE: Monday September 7, 2009 - Changed Intro, Chorus, Pre Solo, Outro

GTR I - Dropped Db (eb,Bb,Gb,Db,Ab,Db)
GTR II - Dropped Db (eb,Bb,Gb,Db,Ab,Db)

Intro

   GTR I (clean with wah)                           
eb|-------------------------------------------------|
Bb|-------------------------------------------------|
Gb|----11-------11-------11----14-------14-------14-|
Db|----------12-------12-------------15-------15----|
Ab|-12----12-------12-------15----15-------15-------|
Db|-------------------------------------------------|
  |                                                 |
  |GTR II (Distortion with wah)                     |
eb|-------------------------------------------------|
Bb|-------------------------------------------------|
Gb|-------------------------------------------------|
Db|-------------------------------------------------|
Ab|-------------------------------------------------|
Db|-------------------------------------------------|

   GTR I (clean with wah)                           
eb|-------------------------------------------|
Bb|-------------------------------------------|
Gb|---10------10------10---10------10------10-|
Db|------10------10-----------10------10------|
Ab|-8-------8-------8----8-------8-------8----|
Db|-------------------------------------------|
  |                                           |
  |GTR II (Distortion with wah)               |
eb|-------------------------------------------|
Bb|-------------------------------------------|
Gb|-------------------------------------------|
Db|-------------------------------------------|
Ab|-------------------------------------------|
Db|-------------------------------------------|

   GTR I (clean with wah)                           
eb|-------------------------------------------------|
Bb|-------------------------------------------------|
Gb|----11-------11-------11----14-------14-------14-|
Db|----------12-------12-------------15-------15----|
Ab|-12----12-------12-------15----15-------15-------|
Db|-------------------------------------------------|
  |                                                 |
  |GTR II (Distortion with wah)                     |
eb|-------------------------------------------------|
Bb|-------------------------------------------------|
Gb|-------------------------------------------------|
Db|-------------------------------------------------|
Ab|-------------------------------------------------|
Db|-------------------------------------------------|

   GTR I (clean with wah)                           
eb|-------------------------------------------|
Bb|-------------------------------------------|
Gb|---10------10------10---10------10------10-|
Db|------10------10-----------10------10------|
Ab|-8-------8-------8----8-------8-------8----|
Db|-------------------------------------------|
  |                                           |
  |GTR II (Distortion with wah)               |
eb|-------------------------------------------|
Bb|-------------------------------------------|
Gb|-------------------------------------------|
Db|-------------------------------------------|
Ab|--------------------------------------12\\-|
Db|--------------------------------------12\\-|


Main Riff

   GTR I (Distortion)                2x                                   2x
eb|-----------------------------------|------------------------------------|
Bb|-----------------------------------|------------------------------------|
Gb|-----------------------------------|-7-7-7-9-9-9-7-7-7-9-9-9-x-13-13-13-|
Db|-----------------------------------|-x-x-x-x-x-x-x-x-x-x-x-x-x--x--x--x-|
Ab|-----------------------------------|-5-5-5-7-7-7-5-5-5-7-7-7-x-11-11-11-|
Db|-----------------------------------|------------------------------------|
  |                                   |                                    |
  |GTR II (Distortion)                |                                    |
eb|-----------------------------------|------------------------------------|
Bb|-----------------------------------|------------------------------------|
Gb|-----------------------------------|------------------------------------|
Db|-0-0-0-3-3-3-0-0-0-3-3-3-0-5/6-6-6-|-0-0-0-3-3-3-0-0-0-3-3-3-0-5/6-6-6--|
Ab|-0-0-0-3-3-3-0-0-0-3-3-3-0-5/6-6-6-|-0-0-0-3-3-3-0-0-0-3-3-3-0-5/6-6-6--|
Db|-0-0-0-3-3-3-0-0-0-3-3-3-0-5/6-6-6-|-0-0-0-3-3-3-0-0-0-3-3-3-0-5/6-6-6--|

Verse

   GTR I (Distortion)                3x                                     3x
eb|-----------------------------------|--------------------------------------|
Bb|-----------------------------------|--------------------------------------|
Gb|-----------------------------------|--------------------------13-13-13-13-|
Db|-----------------------------------|--------------------------13-13-13-13-|
Ab|-----------------------------------|--------------------------11-11-11-11-|
Db|-----------------------------------|--------------------------------------|
  |                                   |                                      |
  |GTR II (Distortion)                |                                      |
eb|-----------------------------------|--------------------------------------|
Bb|-----------------------------------|--------------------------------------|
Gb|-----------------------------------|--------------------------------------|
Db|-0-0-0-3-3-3-0-0-0-3-3-3-0-5/6-6-6-|-0-0-0-3-3-3-0-0-0-3-3-3-0-5/6-6-6----|
Ab|-0-0-0-3-3-3-0-0-0-3-3-3-0-5/6-6-6-|-0-0-0-3-3-3-0-0-0-3-3-3-0-5/6-6-6----|
Db|-0-0-0-3-3-3-0-0-0-3-3-3-0-5/6-6-6-|-0-0-0-3-3-3-0-0-0-3-3-3-0-5/6-6-6----|
PM| . . . . . . . . . . . . . . . . .   . . . . . . . . . . . . . . . . .

   GTR I (Distortion)                                                     
eb|-----------------------------------|-----------------------------------|
Bb|-----------------------------------|-----------------------------------|
Gb|-----------------------------------|-----------------------------------|
Db|-----------------------------------|-0-0-0-3-3-3-0-0-0-3-3-3-0-5/6-6-6-|
Ab|-----------------------------------|-0-0-0-3-3-3-0-0-0-3-3-3-0-5/6-6-6-|
Db|-----------------------------------|-0-0-0-3-3-3-0-0-0-3-3-3-0-5/6-6-6-|
  |                                   |                                   |
  |GTR II (Distortion)                |                                   |
eb|-----------------------------------|-----------------------------------|
Bb|-----------------------------------|-----------------------------------|
Gb|-----------------------------------|-----------------------------------|
Db|-0-0-0-3-3-3-0-0-0-3-3-3-0-5/6-6-6-|-0-0-0-3-3-3-0-0-0-3-3-3-0-5/6-6-6-|
Ab|-0-0-0-3-3-3-0-0-0-3-3-3-0-5/6-6-6-|-0-0-0-3-3-3-0-0-0-3-3-3-0-5/6-6-6-|
Db|-0-0-0-3-3-3-0-0-0-3-3-3-0-5/6-6-6-|-0-0-0-3-3-3-0-0-0-3-3-3-0-5/6-6-6-|
PM| . . . . . . . . . . . . . . . . .   . . .                            

Pre-Chorus

   GTR I (Distortion)
eb|------------------------------------------|
Bb|------------------------------------------|
Gb|------------------------------------------|
Db|-5---5-5-5-5-5-6--6-6-6-6-5-5-5-5-5-5--3--|
Ab|-5---5-5-5-5-5-6--6-6-6-6-5-5-5-5-5-5--3--|
Db|-5---5-5-5-5-5-6--6-6-6-6-5-5-5-5-5-5--3--|
  |                                          |
  |GTR II (Distortion)                       |
eb|------------------------------------------|
Bb|------------------------------------------|
Gb|------------------------------------------|
Db|-5---5-5-5-5-5-6--6-6-6-6-5-5-5-5-5-5--3--|
Ab|-5---5-5-5-5-5-6--6-6-6-6-5-5-5-5-5-5--3--|
Db|-5---5-5-5-5-5-6--6-6-6-6-5-5-5-5-5-5--3--|

Chorus

   GTR I (Distortion)
eb|------------------------------------------------x-x--------------------|
Bb|------------------------------------------------3-3--------------------|
Gb|-----------------------5--5-5-5-5-5-5-5---------2-2--------------------|
Db|-0--0-0-0-0-3--3-3-3-3-5--5-5-5-5-5-5-5-0-5-5-0-0-0-0-0-0-0-3--3-3-3-3-|
Ab|-0--0-0-0-0-3--3-3-3-3-3--3-3-3-3-3-3-3-0-5-5-0-----0-0-0-0-3--3-3-3-3-|
Db|-0--0-0-0-0-3--3-3-3-3------------------0-5-5-0-----0-0-0-0-3--3-3-3-3-|
  |                                                                       |
  |GTR II (Distortion)                                                    |
eb|------------------------------------------------x-x--------------------|
Bb|------------------------------------------------3-3--------------------|
Gb|-----------------------5--5-5-5-5-5-5-5---------2-2--------------------|
Db|-0--0-0-0-0-3--3-3-3-3-5--5-5-5-5-5-5-5-0-5-5-0-0-0-0-0-0-0-3--3-3-3-3-|
Ab|-0--0-0-0-0-3--3-3-3-3-3--3-3-3-3-3-3-3-0-5-5-0-----0-0-0-0-3--3-3-3-3-|
Db|-0--0-0-0-0-3--3-3-3-3------------------0-5-5-0-----0-0-0-0-3--3-3-3-3-|

   GTR I (Distortion)
eb|----------------------------x-x-x-x-x-x---------------------------------|
Bb|----------------------------3-3-3-3-3-3---------------------------------|
Gb|-5--5-5-5-5-5-5-5-5---------2-2-2-2-2-2-5-5-5-5-5-5-4-4-4-4-4-4---------|
Db|-5--5-5-5-5-5-5-5-5-0-5-5-0-0-0-0-0-0-0-5-5-5-5-5-5-4-4-4-4-4-4-3-3-3-0-|
Ab|-3--3-3-3-3-3-3-3-3-0-5-5-0-------------3-3-3-3-3-3-2-2-2-2-2-2-3-3-3-0-|
Db|--------------------0-5-5-0-------------------------------------3-3-3-0-|
  |                                                                        |
  |GTR II (Distortion)                                                     |
eb|----------------------------x-x-x-x-x-x---------------------------------|
Bb|----------------------------3-3-3-3-3-3---------------------------------|
Gb|-5--5-5-5-5-5-5-5-5---------2-2-2-2-2-2-5-5-5-5-5-5-4-4-4-4-4-4---------|
Db|-5--5-5-5-5-5-5-5-5-0-5-5-0-0-0-0-0-0-0-5-5-5-5-5-5-4-4-4-4-4-4-3-3-3-0-|
Ab|-3--3-3-3-3-3-3-3-3-0-5-5-0-------------3-3-3-3-3-3-2-2-2-2-2-2-3-3-3-0-|
Db|--------------------0-5-5-0-------------------------------------3-3-3-0-|

   GTR I (Distortion)
eb|---------------------------------------------------------|
Bb|---------------------------------------------------------|
Gb|--------------------------------5--5-5-5-5-5-5-5---------|
Db|-3h5--0--0-0-0-0-0-3--3-3-3-3-3-5--5-5-5-5-5-5-5-0-5-5-5-|
Ab|-3h5--0--0-0-0-0-0-3--3-3-3-3-3-3--3-3-3-3-3-3-3-0-5-5-5-|
Db|-3h5--0--0-0-0-0-0-3--3-3-3-3-3------------------0-5-5-5-|
  |                                                         |
  |GTR II (Distortion)                                      |
eb|---------------------------------------------------------|
Bb|---------------------------------------------------------|
Gb|--------------------------------5--5-5-5-5-5-5-5---------|
Db|-3h5--0--0-0-0-0-0-3--3-3-3-3-3-5--5-5-5-5-5-5-5-0-5-5-5-|
Ab|-3h5--0--0-0-0-0-0-3--3-3-3-3-3-3--3-3-3-3-3-3-3-0-5-5-5-|
Db|-3h5--0--0-0-0-0-0-3--3-3-3-3-3------------------0-5-5-5-|

Post-Chorus

   GTR I (Distortion)                
eb|------------------------------------|
Bb|------------------------------------|
Gb|-7-7-7-9-9-9-7-7-7-9-9-9-x-13-13-13-|
Db|-x-x-x-x-x-x-x-x-x-x-x-x-x--x--x--x-|
Ab|-5-5-5-7-7-7-5-5-5-7-7-7-x-11-11-11-|
Db|------------------------------------|
  |                                    |
  |GTR II (Distortion)                 |
eb|------------------------------------|
Bb|------------------------------------|
Gb|------------------------------------|
Db|-0-0-0-3-3-3-0-0-0-3-3-3-0-5/6-6-6--|
Ab|-0-0-0-3-3-3-0-0-0-3-3-3-0-5/6-6-6--|
Db|-0-0-0-3-3-3-0-0-0-3-3-3-0-5/6-6-6--|

Verse

   GTR I (Distortion)                3x                                     3x
eb|-----------------------------------|--------------------------------------|
Bb|-----------------------------------|--------------------------------------|
Gb|-----------------------------------|--------------------------13-13-13-13-|
Db|-----------------------------------|--------------------------13-13-13-13-|
Ab|-----------------------------------|--------------------------11-11-11-11-|
Db|-----------------------------------|--------------------------------------|
  |                                   |                                      |
  |GTR II (Distortion)                |                                      |
eb|-----------------------------------|--------------------------------------|
Bb|-----------------------------------|--------------------------------------|
Gb|-----------------------------------|--------------------------------------|
Db|-0-0-0-3-3-3-0-0-0-3-3-3-0-5/6-6-6-|-0-0-0-3-3-3-0-0-0-3-3-3-0-5/6-6-6----|
Ab|-0-0-0-3-3-3-0-0-0-3-3-3-0-5/6-6-6-|-0-0-0-3-3-3-0-0-0-3-3-3-0-5/6-6-6----|
Db|-0-0-0-3-3-3-0-0-0-3-3-3-0-5/6-6-6-|-0-0-0-3-3-3-0-0-0-3-3-3-0-5/6-6-6----|
PM| . . . . . . . . . . . . . . . . .   . . . . . . . . . . . . . . . . .

   GTR I (Distortion)                                                     
eb|-----------------------------------|-----------------------------------|
Bb|-----------------------------------|-----------------------------------|
Gb|-----------------------------------|-----------------------------------|
Db|-----------------------------------|-0-0-0-3-3-3-0-0-0-3-3-3-0-5/6-6-6-|
Ab|-----------------------------------|-0-0-0-3-3-3-0-0-0-3-3-3-0-5/6-6-6-|
Db|-----------------------------------|-0-0-0-3-3-3-0-0-0-3-3-3-0-5/6-6-6-|
  |                                   |                                   |
  |GTR II (Distortion)                |                                   |
eb|-----------------------------------|-----------------------------------|
Bb|-----------------------------------|-----------------------------------|
Gb|-----------------------------------|-----------------------------------|
Db|-0-0-0-3-3-3-0-0-0-3-3-3-0-5/6-6-6-|-0-0-0-3-3-3-0-0-0-3-3-3-0-5/6-6-6-|
Ab|-0-0-0-3-3-3-0-0-0-3-3-3-0-5/6-6-6-|-0-0-0-3-3-3-0-0-0-3-3-3-0-5/6-6-6-|
Db|-0-0-0-3-3-3-0-0-0-3-3-3-0-5/6-6-6-|-0-0-0-3-3-3-0-0-0-3-3-3-0-5/6-6-6-|
PM| . . . . . . . . . . . . . . . . .   . . .                            

Pre-Chorus

   GTR I (Distortion)
eb|------------------------------------------|
Bb|------------------------------------------|
Gb|------------------------------------------|
Db|-5---5-5-5-5-5-6--6-6-6-6-5-5-5-5-5-5--3--|
Ab|-5---5-5-5-5-5-6--6-6-6-6-5-5-5-5-5-5--3--|
Db|-5---5-5-5-5-5-6--6-6-6-6-5-5-5-5-5-5--3--|
  |                                          |
  |GTR II (Distortion)                       |
eb|------------------------------------------|
Bb|------------------------------------------|
Gb|------------------------------------------|
Db|-5---5-5-5-5-5-6--6-6-6-6-5-5-5-5-5-5--3--|
Ab|-5---5-5-5-5-5-6--6-6-6-6-5-5-5-5-5-5--3--|
Db|-5---5-5-5-5-5-6--6-6-6-6-5-5-5-5-5-5--3--|

Chorus

   GTR I (Distortion)
eb|------------------------------------------------x-x--------------------|
Bb|------------------------------------------------3-3--------------------|
Gb|-----------------------5--5-5-5-5-5-5-5---------2-2--------------------|
Db|-0--0-0-0-0-3--3-3-3-3-5--5-5-5-5-5-5-5-0-5-5-0-0-0-0-0-0-0-3--3-3-3-3-|
Ab|-0--0-0-0-0-3--3-3-3-3-3--3-3-3-3-3-3-3-0-5-5-0-----0-0-0-0-3--3-3-3-3-|
Db|-0--0-0-0-0-3--3-3-3-3------------------0-5-5-0-----0-0-0-0-3--3-3-3-3-|
  |                                                                       |
  |GTR II (Distortion)                                                    |
eb|------------------------------------------------x-x--------------------|
Bb|------------------------------------------------3-3--------------------|
Gb|-----------------------5--5-5-5-5-5-5-5---------2-2--------------------|
Db|-0--0-0-0-0-3--3-3-3-3-5--5-5-5-5-5-5-5-0-5-5-0-0-0-0-0-0-0-3--3-3-3-3-|
Ab|-0--0-0-0-0-3--3-3-3-3-3--3-3-3-3-3-3-3-0-5-5-0-----0-0-0-0-3--3-3-3-3-|
Db|-0--0-0-0-0-3--3-3-3-3------------------0-5-5-0-----0-0-0-0-3--3-3-3-3-|

   GTR I (Distortion)
eb|----------------------------x-x-x-x-x-x---------------------------------|
Bb|----------------------------3-3-3-3-3-3---------------------------------|
Gb|-5--5-5-5-5-5-5-5-5---------2-2-2-2-2-2-5-5-5-5-5-5-4-4-4-4-4-4---------|
Db|-5--5-5-5-5-5-5-5-5-0-5-5-0-0-0-0-0-0-0-5-5-5-5-5-5-4-4-4-4-4-4-3-3-3-0-|
Ab|-3--3-3-3-3-3-3-3-3-0-5-5-0-------------3-3-3-3-3-3-2-2-2-2-2-2-3-3-3-0-|
Db|--------------------0-5-5-0-------------------------------------3-3-3-0-|
  |                                                                        |
  |GTR II (Distortion)                                                     |
eb|----------------------------x-x-x-x-x-x---------------------------------|
Bb|----------------------------3-3-3-3-3-3---------------------------------|
Gb|-5--5-5-5-5-5-5-5-5---------2-2-2-2-2-2-5-5-5-5-5-5-4-4-4-4-4-4---------|
Db|-5--5-5-5-5-5-5-5-5-0-5-5-0-0-0-0-0-0-0-5-5-5-5-5-5-4-4-4-4-4-4-3-3-3-0-|
Ab|-3--3-3-3-3-3-3-3-3-0-5-5-0-------------3-3-3-3-3-3-2-2-2-2-2-2-3-3-3-0-|
Db|--------------------0-5-5-0-------------------------------------3-3-3-0-|

   GTR I (Distortion)
eb|---------------------------------------------------------|
Bb|---------------------------------------------------------|
Gb|--------------------------------5--5-5-5-5-5-5-5---------|
Db|-3h5--0--0-0-0-0-0-3--3-3-3-3-3-5--5-5-5-5-5-5-5-0-5-5-5-|
Ab|-3h5--0--0-0-0-0-0-3--3-3-3-3-3-3--3-3-3-3-3-3-3-0-5-5-5-|
Db|-3h5--0--0-0-0-0-0-3--3-3-3-3-3------------------0-5-5-5-|
  |                                                         |
  |GTR II (Distortion)                                      |
eb|---------------------------------------------------------|
Bb|---------------------------------------------------------|
Gb|--------------------------------5--5-5-5-5-5-5-5---------|
Db|-3h5--0--0-0-0-0-0-3--3-3-3-3-3-5--5-5-5-5-5-5-5-0-5-5-5-|
Ab|-3h5--0--0-0-0-0-0-3--3-3-3-3-3-3--3-3-3-3-3-3-3-0-5-5-5-|
Db|-3h5--0--0-0-0-0-0-3--3-3-3-3-3------------------0-5-5-5-|

Post-Chorus

   GTR I (Distortion)                
eb|------------------------------------|
Bb|------------------------------------|
Gb|-7-7-7-9-9-9-7-7-7-9-9-9-x-13-13-13-|
Db|-x-x-x-x-x-x-x-x-x-x-x-x-x--x--x--x-|
Ab|-5-5-5-7-7-7-5-5-5-7-7-7-x-11-11-11-|
Db|------------------------------------|
  |                                    |
  |GTR II (Distortion)                 |
eb|------------------------------------|
Bb|------------------------------------|
Gb|------------------------------------|
Db|-0-0-0-3-3-3-0-0-0-3-3-3-0-5/6-6-6--|
Ab|-0-0-0-3-3-3-0-0-0-3-3-3-0-5/6-6-6--|
Db|-0-0-0-3-3-3-0-0-0-3-3-3-0-5/6-6-6--|

Pre Solo

   GTR I (clean with wah)                           
eb|-------------------------------------------------|
Bb|-------------------------------------------------|
Gb|----11-------11-------11----14-------14-------14-|
Db|----------12-------12-------------15-------15----|
Ab|-12----12-------12-------15----15-------15-------|
Db|-------------------------------------------------|
  |                                                 |
  |GTR II (Distortion with wah)                     |
eb|-------------------------------------------------|
Bb|-------------------------------------------------|
Gb|-------------------------------------------------|
Db|-------------------------------------------------|
Ab|-------------------------------------------------|
Db|-------------------------------------------------|

   GTR I (clean with wah)                           
eb|-------------------------------------------|
Bb|-------------------------------------------|
Gb|---10------10------10---10------10------10-|
Db|------10------10-----------10------10------|
Ab|-8-------8-------8----8-------8-------8----|
Db|-------------------------------------------|
  |                                           |
  |GTR II (Distortion with wah)               |
eb|-------------------------------------------|
Bb|-------------------------------------------|
Gb|-------------------------------------------|
Db|-------------------------------------------|
Ab|-------------------------------------------|
Db|-------------------------------------------|

   GTR I (clean with wah)                           
eb|-------------------------------------------------|
Bb|-------------------------------------------------|
Gb|----11-------11-------11----14-------14-------14-|
Db|----------12-------12-------------15-------15----|
Ab|-12----12-------12-------15----15-------15-------|
Db|-------------------------------------------------|
  |                                                 |
  |GTR II (Distortion with wah)                     |
eb|-------------------------------------------------|
Bb|-------------------------------------------------|
Gb|-------------------------------------------------|
Db|-------------------------------------------------|
Ab|-------------------------------------------------|
Db|-------------------------------------------------|

   GTR I (clean with wah)              Dist./wah     
eb|-----------------------------------|--------|
Bb|-----------------------------------|--------|
Gb|---10------10------10---10------10-|-7/14\7-|
Db|------10------10-----------10------|--------|
Ab|-8-------8-------8----8-------8----|--------|
Db|-----------------------------------|--------|
  |                                            |
  |GTR II (Distortion)                         |
eb|--------------------------------------------|
Bb|--------------------------------------------|
Gb|--------------------------------------------|
Db|--------------------------------------------|
Ab|--------------------------------------12\\\-|
Db|--------------------------------------12\\\-|

Guitar Solo

   GTR I (Distortion with wah)
eb|-------------------------|--------------------------------------|
Bb|--13fb-13fb-13fb-13fb----|--------------------------------------|
Gb|----------------------12~|12~-10--------------------------------|
Db|-------------------------|-------12-10-12-10----10--------------|
Ab|-------------------------|-------------------12----12-10-12-10-8|
Db|-------------------------|--------------------------------------|
  |                         |                                      |
  |GTR II (Distortion)      |                                      |
eb|-------------------------|--------------------------------------|
Bb|-------------------------|--------------------------------------|
Gb|-------------------------|--------------------------------------|
Db|-000-333-000-333-0-5/666-|-0-0-0-3-3-3-0-0-0-3-3-3--0--5/6-6-6--|
Ab|-000-333-000-333-0-5/666-|-0-0-0-3-3-3-0-0-0-3-3-3--0--5/6-6-6--|
Db|-000-333-000-333-0-5/666-|-0-0-0-3-3-3-0-0-0-3-3-3--0--5/6-6-6--|

   GTR I (Distortion with wah)
eb|--------------------------|--------------------------|
Bb|--------------------------|-15-----17-----18-----20fb|
Gb|--------------------------|-17fb---19fb---20fb-------|
Db|-------------------10--12-|--------------------------|
Ab|-5~--8~--10~--12~---------|--------------------------|
Db|--------------------------|--------------------------|
  |                          |                          |
  |GTR II (Distortion)       |                          |
eb|--------------------------|--------------------------|
Bb|--------------------------|--------------------------|
Gb|--------------------------|--------------------------|
Db|-000-333-000-333-0-5/666--|-000-333-000-333-0-5/666--|
Ab|-000-333-000-333-0-5/666--|-000-333-000-333-0-5/666--|
Db|-000-333-000-333-0-5/666--|-000-333-000-333-0-5/666--|

Chorus

   GTR I (Distortion)
eb|-----------------------------------------------------------------------|
Bb|-20fb(ctd)-------------------------------------------------------------|
Gb|-----------------------------------------------------------------------|
Db|----------------------------------------------------0-0-0-0-3--3-3-3-3-|
Ab|----------------------------------------------------0-0-0-0-3--3-3-3-3-|
Db|----------------------------------------------------0-0-0-0-3--3-3-3-3-|
  |                                                                       |
  |GTR II (Distortion)                                                    |
eb|------------------------------------------------x-x--------------------|
Bb|------------------------------------------------3-3--------------------|
Gb|-----------------------5--5-5-5-5-5-5-5---------2-2--------------------|
Db|-0--0-0-0-0-3--3-3-3-3-5--5-5-5-5-5-5-5-0-5-5-0-0-0-0-0-0-0-3--3-3-3-3-|
Ab|-0--0-0-0-0-3--3-3-3-3-3--3-3-3-3-3-3-3-0-5-5-0-----0-0-0-0-3--3-3-3-3-|
Db|-0--0-0-0-0-3--3-3-3-3------------------0-5-5-0-----0-0-0-0-3--3-3-3-3-|

   GTR I (Distortion)
eb|----------------------------x-x-x-x-x-x---------------------------------|
Bb|----------------------------3-3-3-3-3-3---------------------------------|
Gb|-5--5-5-5-5-5-5-5-5---------2-2-2-2-2-2-5-5-5-5-5-5-4-4-4-4-4-4---------|
Db|-5--5-5-5-5-5-5-5-5-0-5-5-0-0-0-0-0-0-0-5-5-5-5-5-5-4-4-4-4-4-4-3-3-3-0-|
Ab|-3--3-3-3-3-3-3-3-3-0-5-5-0-------------3-3-3-3-3-3-2-2-2-2-2-2-3-3-3-0-|
Db|--------------------0-5-5-0-------------------------------------3-3-3-0-|
  |                                                                        |
  |GTR II (Distortion)                                                     |
eb|----------------------------x-x-x-x-x-x---------------------------------|
Bb|----------------------------3-3-3-3-3-3---------------------------------|
Gb|-5--5-5-5-5-5-5-5-5---------2-2-2-2-2-2-5-5-5-5-5-5-4-4-4-4-4-4---------|
Db|-5--5-5-5-5-5-5-5-5-0-5-5-0-0-0-0-0-0-0-5-5-5-5-5-5-4-4-4-4-4-4-3-3-3-0-|
Ab|-3--3-3-3-3-3-3-3-3-0-5-5-0-------------3-3-3-3-3-3-2-2-2-2-2-2-3-3-3-0-|
Db|--------------------0-5-5-0-------------------------------------3-3-3-0-|

   GTR I (Distortion)
eb|---------------------------------------------------------|
Bb|---------------------------------------------------------|
Gb|--------------------------------5--5-5-5-5-5-5-5---------|
Db|-3h5--0--0-0-0-0-0-3--3-3-3-3-3-5--5-5-5-5-5-5-5-0-5-5-5-|
Ab|-3h5--0--0-0-0-0-0-3--3-3-3-3-3-3--3-3-3-3-3-3-3-0-5-5-5-|
Db|-3h5--0--0-0-0-0-0-3--3-3-3-3-3------------------0-5-5-5-|
  |                                                         |
  |GTR II (Distortion)                                      |
eb|---------------------------------------------------------|
Bb|---------------------------------------------------------|
Gb|--------------------------------5--5-5-5-5-5-5-5---------|
Db|-3h5--0--0-0-0-0-0-3--3-3-3-3-3-5--5-5-5-5-5-5-5-0-5-5-5-|
Ab|-3h5--0--0-0-0-0-0-3--3-3-3-3-3-3--3-3-3-3-3-3-3-0-5-5-5-|
Db|-3h5--0--0-0-0-0-0-3--3-3-3-3-3------------------0-5-5-5-|

Post-Chorus

   GTR I (Distortion)                 2x
eb|------------------------------------|
Bb|------------------------------------|
Gb|-7-7-7-9-9-9-7-7-7-9-9-9-x-13-13-13-|
Db|-x-x-x-x-x-x-x-x-x-x-x-x-x--x--x--x-|
Ab|-5-5-5-7-7-7-5-5-5-7-7-7-x-11-11-11-|
Db|------------------------------------|
  |                                    |
  |GTR II (Distortion)                 |
eb|------------------------------------|
Bb|------------------------------------|
Gb|------------------------------------|
Db|-0-0-0-3-3-3-0-0-0-3-3-3-0-5/6-6-6--|
Ab|-0-0-0-3-3-3-0-0-0-3-3-3-0-5/6-6-6--|
Db|-0-0-0-3-3-3-0-0-0-3-3-3-0-5/6-6-6--|

Outro

   GTR I (clean with wah)                           
eb|-------------------------------------------------|
Bb|-------------------------------------------------|
Gb|----11-------11-------11----14-------14-------14-|
Db|----------12-------12-------------15-------15----|
Ab|-12----12-------12-------15----15-------15-------|
Db|-------------------------------------------------|
  |                                                 |
  |GTR II (Distortion with wah)                     |
eb|-------------------------------------------------|
Bb|-------------------------------------------------|
Gb|-------------------------------------------------|
Db|-------------------------------------------------|
Ab|-------------------------------------------------|
Db|-------------------------------------------------|

   GTR I (clean with wah)                           
eb|-------------------------------------------|
Bb|-------------------------------------------|
Gb|---10------10------10---10------10------10-|
Db|------10------10-----------10------10------|
Ab|-8-------8-------8----8-------8-------8----|
Db|-------------------------------------------|
  |                                           |
  |GTR II (Distortion with wah)               |
eb|-------------------------------------------|
Bb|-------------------------------------------|
Gb|-------------------------------------------|
Db|-------------------------------------------|
Ab|-------------------------------------------|
Db|-------------------------------------------|

   GTR I (clean with wah)                           
eb|-------------------------------------------------|
Bb|-------------------------------------------------|
Gb|----11-------11-------11----14-------14-------14-|
Db|----------12-------12-------------15-------15----|
Ab|-12----12-------12-------15----15-------15-------|
Db|-------------------------------------------------|
  |                                                 |
  |GTR II (Distortion with wah)                     |
eb|-------------------------------------------------|
Bb|-------------------------------------------------|
Gb|-------------------------------------------------|
Db|-------------------------------------------------|
Ab|-------------------------------------------------|
Db|-------------------------------------------------|

   GTR I (clean with wah)                           
eb|-------------------------------------------|
Bb|-------------------------------------------|
Gb|---10------10------10---10------10------10-|
Db|------10------10-----------10------10------|
Ab|-8-------8-------8----8-------8-------8----|
Db|-------------------------------------------|
  |                                           |
  |GTR II (Distortion with wah)               |
eb|-------------------------------------------|
Bb|-------------------------------------------|
Gb|-------------------------------------------|
Db|-------------------------------------------|
Ab|-------------------------------------------|
Db|-------------------------------------------|

| .  palm mute
| fb full bend
| /  slide up
| \  slide down
| h  hammer-on
| p  pull-off
| ~  vibrato
| +  harmonic
| x  Mute note
===============================================================================

            
            
Suggest correction
Creating personal tab
Creating personal tab
You can edit any tab online and save it as your Personal.

You can edit, replace or remove any tab part or add personal notes – all changes will be seen only by you.

Personal tabs can be accessed anytime from any device, even offline.
Learn more »
Give kudos to tab author, rate the tab!
1 2 3 4 5
comments
print report bad tab
guest
You may want to rate the tab now too:
select rating
Wanna post a correction for this tab? Suggest correction