Oops, an error
Loading. Please wait.

World War Me tab

2,013 views 9 this week
no commentswrite comment
1 2 3 4 5
1 last vote to show rating
add to favorites
×
Save as Personal and add changes to this tab that will be seen only by you. Learn more ›
×
You can save this tab as Personal to edit and correct it or add notes. All changes will be seen only by you. Learn more »
launch autoscroll
font size
0
reset
how to read this tab
guitar tuner
edit
Autoscroll
slow
fast
+/-
esc
set tempo
stop
World War Me. Track 11 from Theory of a Deadman's album SAVAGES

Drop B Tuning Low to High:(B,F#,B,E,G#,C#)
Guitar One: RHYTHM. Guitar Two: LEAD
Intro:
0:00
Guitar 1
1----------------------------------------------------------|
2----------------------------------------------------------|
3----------------------------------------------------------|
4---0-----0-------5-----5---0-----0-------5-----5----------|
5-----0-----0-----------------0-----0----------------------|
6-0-----0------5-----5----0-----0------5-----5-------------|

1----------------------------------------------------------|
2----------------------------------------------------------|
3----------------------------------------------------------|
4-----3--3--3--2~------------------------------------------|
5---3--3--3----2~------------------------------------------|
6-3--------------------------------------------------------|

0:11
Guitar 2
1----------------------------------------------------------|
2----6-10-99-88-66~---6-10-99-88-66~-----------------------|
3--7----------------7--------------------------------------|
4----------------------------------------------------------|
5----------------------------------------------------------|
6----------------------------------------------------------|

0:18
Guitar 1
1----------------------------------------------------------|
2----------------------------------------------------------|
3----------------------------------------------------------|
4--0-3-7-66-55-33~-0-3-7-66-55-33~-------------------------|
5--0-3-7-66-55-33~-0-3-7-66-55-33~-------------------------|
6--0-3-7-66-55-33~-0-3-7-66-55-33~-------------------------|

Guitar 2
1----------------------------------------------------------|
2----6-10-99-88-66~---6-10-99-88-66~-----------------------|
3--7----------------7--------------------------------------|
4----------------------------------------------------------|
5----------------------------------------------------------|
6----------------------------------------------------------|


VERSE:
0:26
Both Guitars:
1----------------------------------------------------------|
2----------------------------------------------------------|
3----------------------------------------------------------|
4--0-------------------0-----------------------------------|
5--0--00-00-00-0---3~--0--00-00-00-0-----------------------|
6--0--00-00-00-0-3~----0--00-00-00-0-5-4-------------------|
      .. .. .. .          .. .. .. . *
1----------------------------------------------------------|
2----------------------------------------------------------|
3----------------------------------------------------------|
4--0-------------------0-------------55555/7---------------|
5--0--00-00-00-0---3~--0--00-00-00-0-33333/5---------------|
6--0--00-00-00-0-3~----0--00-00-00-0-----------------------|
      .. .. .. .          .. .. .. .

Pre-Chorus:
0:40
Guitar 1:
1----------------------------------------------------------|
2----------------------------------------------------------|
3----------------------------------------------------------|     X2
4--7----7/10----10\5----5/7---55555/7----------------------|
5--5-00-5/8--00--8\3-00-3/5-0-33333/5----------------------|
6----00------00------00-----0------------------------------|
     ..      ..      ..     .
Guitar 2;
1----------------------------------------------------------|
2----------------------------------------------------------|
3----------------------------------------------------------|     X2
4----------------------------55555/7-----------------------|
5-3h5-00-3h5-00-3h5-00-3h5-0-33333/5-----------------------|
6-----00-----00-----00-----0-------------------------------|
      ..     ..     ..     .

0:47
Both Guitars:
1----------------------------------------------------------|
2----------------------------------------------------------|
3--7~-----7~-----7~-----7~---------------------------------|
4--7~-----7~-----7~-----7~---------------------------------|
5--5~-----5~-----5~-----5~---------------------------------|
6--0~-----0~-----0~-----0~---------------------------------|

Chorus:
0:54
Guitar 1
1-----------------------------------------------------------|
2-----------------------------------------------------------|
3--------------5555-------------------5555------------------|
4--0000-2-3333-5555-5555--0000-2-3333-5555-5555-------------|
5--0000-2-3333-3333-5555--0000-2-3333-3333-5555-------------|
6--0000-2-3333------5555--0000-2-3333------5555-------------|

1------------------------------------------------------------|
2------------------------------------------------------------|
3--------------5555-------------------5555-------------------|
4--0000-2-3333-5555-5555--0000-2-3333-5555-5555--88888888-77-|
5--0000-2-3333-3333-5555--0000-2-3333-3333-5555--88888888-77-|
6--0000-2-3333------5555--0000-2-3333------5555--88888888-77-|

Guitar 2
1-----------------------------------------------------------|
2-----------------------------------------------------------|
3--------------5555-----7--------------5555-----7-----------|
4--0000-2-3333-5555-555-7--0000-2-3333-5555-555-7-----------|
5--0000-2-3333-3333-555-5--0000-2-3333-3333-555-5-----------|
6--0000-2-3333------555-0--0000-2-3333------555-0-----------|

1------------------------------------------------------------|
2------------------------------------------------------------|
3--------------5555-------------------5555-------------------|
4--0000-2-3333-5555-5555--0000-2-3333-5555-5555--88888888-77-|
5--0000-2-3333-3333-5555--0000-2-3333-3333-5555--88888888-77-|
6--0000-2-3333------5555--0000-2-3333------5555--88888888-77-|

Pre-Verse:
1:12
Guitar 1
1----------------------------------------------------------|
2----------------------------------------------------------|
3----------------------------------------------------------|
4--0-3-7-66-55-33~-0-3-7-66-55-33~-------------------------|
5--0-3-7-66-55-33~-0-3-7-66-55-33~-------------------------|
6--0-3-7-66-55-33~-0-3-7-66-55-33~-------------------------|

Guitar 2
1----------------------------------------------------------|
2----6-10-99-88-66~---6-10-99-88-66~-----------------------|
3--7----------------7--------------------------------------|
4----------------------------------------------------------|
5----------------------------------------------------------|
6----------------------------------------------------------|

Verse:
1:19
Both Guitars:
1----------------------------------------------------------|
2----------------------------------------------------------|
3----------------------------------------------------------|
4--0-------------------0-----------------------------------|
5--0--00-00-00-0---3~--0--00-00-00-0-----------------------|
6--0--00-00-00-0-3~----0--00-00-00-0-5-4-------------------|
      .. .. .. .          .. .. .. . *
1----------------------------------------------------------|
2----------------------------------------------------------|
3----------------------------------------------------------|
4--0-------------------0-------------55555/7---------------|
5--0--00-00-00-0---3~--0--00-00-00-0-33333/5---------------|
6--0--00-00-00-0-3~----0--00-00-00-0-----------------------|
      .. .. .. .          .. .. .. .

Pre-Chorus:
1:33
Guitar 1:
1----------------------------------------------------------|
2----------------------------------------------------------|
3----------------------------------------------------------|     X2
4--7----7/10----10\5----5/7---55555/7----------------------|
5--5-00-5/8--00--8\3-00-3/5-0-33333/5----------------------|
6----00------00------00-----0------------------------------|
     ..      ..      ..     .
Guitar 2;
1----------------------------------------------------------|
2----------------------------------------------------------|
3----------------------------------------------------------|     X2
4----------------------------55555/7-----------------------|
5-3h5-00-3h5-00-3h5-00-3h5-0-33333/5-----------------------|
6-----00-----00-----00-----0-------------------------------|
      ..     ..     ..     .

Both Guitars:
1:41
1----------------------------------------------------------|
2----------------------------------------------------------|
3--7~-----7~-----7~-----7~---------------------------------|
4--7~-----7~-----7~-----7~---------------------------------|
5--5~-----5~-----5~-----5~---------------------------------|
6--0~-----0~-----0~-----0~---------------------------------|

Chorus:
1:48
Guitar 1
1-----------------------------------------------------------|
2-----------------------------------------------------------|
3--------------5555-------------------5555------------------|
4--0000-2-3333-5555-5555--0000-2-3333-5555-5555-------------|
5--0000-2-3333-3333-5555--0000-2-3333-3333-5555-------------|
6--0000-2-3333------5555--0000-2-3333------5555-------------|

1------------------------------------------------------------|
2------------------------------------------------------------|
3--------------5555-------------------5555-------------------|
4--0000-2-3333-5555-5555--0000-2-3333-5555-5555--88888888-77-|
5--0000-2-3333-3333-5555--0000-2-3333-3333-5555--88888888-77-|
6--0000-2-3333------5555--0000-2-3333------5555--88888888-77-|

Guitar 2
1-----------------------------------------------------------|
2-----------------------------------------------------------|
3--------------5555-----7--------------5555-----7-----------|
4--0000-2-3333-5555-555-7--0000-2-3333-5555-555-7-----------|
5--0000-2-3333-3333-555-5--0000-2-3333-3333-555-5-----------|
6--0000-2-3333------555-0--0000-2-3333------555-0-----------|

1------------------------------------------------------------|
2------------------------------------------------------------|
3--------------5555-------------------5555-------------------|
4--0000-2-3333-5555-5555--0000-2-3333-5555-5555--88888888-77-|
5--0000-2-3333-3333-5555--0000-2-3333-3333-5555--88888888-77-|
6--0000-2-3333------5555--0000-2-3333------5555--88888888-77-|

Post-Chorus:
2:06
Guitar 1
1-----------------------------------------------------------|
2-----------------------------------------------------------|
3-----------------------------------------------------------|
4--0-3-7-66-55-33~------------------------------------------|
5--0-3-7-66-55-33~------------------------------------------|
6--0-3-7-66-55-33~------------------------------------------|

Guitar 2
1-----------------------------------------------------------|
2----6-10-99-88-66~-----------------------------------------|
3--7--------------------------------------------------------|
4-----------------------------------------------------------|
5-----------------------------------------------------------|
6-----------------------------------------------------------|

2:09
Guitar 1
1-----------------------------------------------------------|
2-----------------------------------------------------------|
3-----------------------------------------------------------|
4--8888-7777-00x0x00-8888-7777-00x0x00-8888-7777-00x0x00----|
5--8888-7777-00x0x00-8888-7777-00x0x00-8888-7777-00x0x00----|
6--8888-7777-00x0x00-8888-7777-00x0x00-8888-7777-00x0x00----|

1-----------------------------------------------------------|
2-----------------------------------------------------------|
3-----------------------------------------------------------|
4--88888888-77777777----------------------------------------|
5--88888888-77777777----------------------------------------|
6--88888888-77777777----------------------------------------|

Guitar 2
1-----------------------------------------------------------|
2-----------------------------------------------------------|
3------------77x7x77-----------77x7x77-----------77x7x77----|
4--8888-7777-77x7x77-8888-7777-77x7x77-8888-7777-77x7x77----|
5--8888-7777-55x5x55-8888-7777-55x5x55-8888-7777-55x5x55----|
6--8888-7777---------8888-7777---------8888-7777------------|

1-----------------------------------------------------------|
2-----------------------------------------------------------|
3-----------------------------------------------------------|
4--88888888-77777777----------------------------------------|
5--88888888-77777777----------------------------------------|
6--88888888-77777777----------------------------------------|

2:24
Guitar 1
1----------------------------------------------------------|
2----------------------------------------------------------|
3----------------------------------------------------------|
4---0-----0-------5-----5---0-----0----5~------------------|
5-----0-----0-----------------0-----0--5~------------------|
6-0-----0------5-----5----0-----0------5~------------------|

Solo:
2:31
Guitar 2:
1------------------------------------------------------------|
2-15~-15/22-20-15-18-18b20rb18--15~-15/22-20-15-18-18b20rb15-|
3------------------------------------------------------------|
4------------------------------------------------------------|
5------------------------------------------------------------|
6------------------------------------------------------------|
Sorry. Only have the first half of the solo. The last note is:
1----------15/22--------------------------------------------

Guitar 1
1-----------------------------------------------------------|
2-----------------------------------------------------------|
3--------------5555-------------------5555------------------|
4--0000-2-3333-5555-5555--0000-2-3333-5555-5555-------------|
5--0000-2-3333-3333-5555--0000-2-3333-3333-5555-------------|
6--0000-2-3333------5555--0000-2-3333------5555-------------|

1-----------------------------------------------------------|
2-----------------------------------------------------------|
3-----------------------------------------------------------|
4--88888888-77777777----------------------------------------|
5--88888888-77777777----------------------------------------|
6--88888888-77777777----------------------------------------|

Chorus:
2:42
Guitar 1
1-----------------------------------------------------------|
2-----------------------------------------------------------|
3--------------5555-------------------5555------------------|
4--0000-2-3333-5555-5555--0000-2-3333-5555-5555-------------|
5--0000-2-3333-3333-5555--0000-2-3333-3333-5555-------------|
6--0000-2-3333------5555--0000-2-3333------5555-------------|

1------------------------------------------------------------|
2------------------------------------------------------------|
3--------------5555-------------------5555-------------------|
4--0000-2-3333-5555-5555--0000-2-3333-5555-5555--88888888-77-|
5--0000-2-3333-3333-5555--0000-2-3333-3333-5555--88888888-77-|
6--0000-2-3333------5555--0000-2-3333------5555--88888888-77-|

Guitar 2
1-----------------------------------------------------------|
2-----------------------------------------------------------|
3--------------5555-----7--------------5555-----7-----------|
4--0000-2-3333-5555-555-7--0000-2-3333-5555-555-7-----------|
5--0000-2-3333-3333-555-5--0000-2-3333-3333-555-5-----------|
6--0000-2-3333------555-0--0000-2-3333------555-0-----------|

1------------------------------------------------------------|
2------------------------------------------------------------|
3--------------5555-------------------5555-------------------|
4--0000-2-3333-5555-5555--0000-2-3333-5555-5555--88888888-77-|
5--0000-2-3333-3333-5555--0000-2-3333-3333-5555--88888888-77-|
6--0000-2-3333------5555--0000-2-3333------5555--88888888-77-|

Outro:
3:00
Guitar 1
1----------------------------------------------------------|
2----------------------------------------------------------|
3----------------------------------------------------------|
4--0-3-7-66-55-33~-0-3-7-66-55-33~-------------------------|
5--0-3-7-66-55-33~-0-3-7-66-55-33~-------------------------|
6--0-3-7-66-55-33~-0-3-7-66-55-33~-------------------------|

Guitar 2
1----------------------------------------------------------|
2----6-10-99-88-66~---6-10-99-88-66~-----------------------|
3--7----------------7--------------------------------------|
4----------------------------------------------------------|
5----------------------------------------------------------|
6----------------------------------------------------------|

3:07
Both Guitars:
1-----------------------------------------------------------|
2-----------------------------------------------------------|
3-----------------------------------------------------------|
4--88888888-7-7x--------------------------------------------|
5--88888888-7-7x--------------------------------------------|
6--88888888-7-7x--------------------------------------------|

END.

Tab Legend:
.=Palm Mute
b=Bend
h=Hammer On
/=Slide Down Neck
\=Slide Up Neck
x=Mute Strings
*=Pinch Harmonic

            
            
Suggest correction
Creating personal tab
Creating personal tab
You can edit any tab online and save it as your Personal.

You can edit, replace or remove any tab part or add personal notes – all changes will be seen only by you.

Personal tabs can be accessed anytime from any device, even offline.
Learn more »
Give kudos to tab author, rate the tab!
1 2 3 4 5
comments
print report bad tab
guest
You may want to rate the tab now too:
select rating
Wanna post a correction for this tab? Suggest correction