Oops, an error
Loading. Please wait.

Tof solo tab

by Therion
281 views 1 this week
no commentswrite comment
1 2 3 4 5
3 more votes to show rating
add to favorites
×
Save as Personal and add changes to this tab that will be seen only by you. Learn more ›
×
You can save this tab as Personal to edit and correct it or add notes. All changes will be seen only by you. Learn more »
launch autoscroll
font size
0
reset
how to read this tab
guitar tuner
edit
Autoscroll
slow
fast
+/-
esc
set tempo
stop
-------------------------------------------------------------------------------
                             T.O.F. - Therion
-------------------------------------------------------------------------------
Tabbed by: Markus Rafferty
Email: stairsleadingup@gmail.com

Tuning: Eb Ab Db Gb Bb eb


  [0:08]
  \\\\\\\    ///\/// \\\     ///// \\
|-------------------------13-------------------------------------------------|
|-------------------------16-------------------------------------------------|
|----0----<2>-------------15b------------------------------------------------|
|--------touch---------------------------------------------------------------|
|----------------------------------------------------------------------------|
|--------------------------------------5h8h11t13-5h8h11t13--13h14h17t20-13h14|


|----------------------------------------------------------------------------|
|----------------------------------------------------------------------------|
|----------------------------------------------------------14h17h20t22-14h17h|
|---------------------------------15h16h19t22-15h16h19t22--------------------|
|--------12h15h18t20-12h15h18t20---------------------------------------------|
|h17t20----------------------------------------------------------------------|


|--------------------------------17h20h23t25-17h20h23t25--p20p17-t24p20p17-t2|
|-------18h19h22t25-18h19h22t25----------------------------------------------|
|20t22-----------------------------------------------------------------------|
|----------------------------------------------------------------------------|
|----------------------------------------------------------------------------|
|----------------------------------------------------------------------------|


                             \\\\\
|5p20p17p13-------------------------------------------------------12/13-16-19|
|-----------13-------------------------------13----------------13------------|
|--------------14-------------------------14----14----------14---------------|
|-----------------15----------------15-16----------16-15-16------------------|
|--------------------15------------------------------------------------------|
|-----------------------17-13------------------------------------------------|


          /\/\/\                                /\/\/\/\/\
|-16-13--------------------20--20b21--20-\18---------------------------------|
|-------17--------/22--23--------------------/22-----------------------------|
|----------------------------------------------------------------------------|
|----------------------------------------------------------------------------|
|----------------------------------------------------------------------------|
|----------------------------------------------------------------------------|



  [0:21]
  \\  /\/\    /\/\    \\   /\/\  \\  /\/\     /\/\                    /\/\
|----------------------------------------------------------------------------|
|----------------------------------------------------------------------------|
|--/15-----/10-----/13---/8------/15------/10------/17b18---17--15--13-------|
|----------------------------------------------------------------------------|
|----------------------------------------------------------------------------|
|----------------------------------------------------------------------------|


      /\/\             /\/\                     /\/\                   /\/\
|----------------------------------------------------------------------------|
|-----------------13-17------/21b22---22--21--20-------/17---17--20--22------|
|--/14---------14------------------------------------------------------------|
|-----------14---------------------------------------------------------------|
|----------------------------------------------------------------------------|
|----------------------------------------------------------------------------|


                    /\/\/\/\/\
|----------------------------------------------------------------------------|
|-24b25---24--22-------------------------------------------------------------|
|-----------------24---------------------------------------------------------|
|----------------------------------------------------------------------------|
|----------------------------------------------------------------------------|
|----------------------------------------------------------------------------|



  [0:59]
              \/\/     \  /                               /\            /\/\
|----------------------------------------------------------------------------|
|-------------------13--14--13------16--14--13-------------------------------|
|-/14-14-14-15------------------15--------------15--17--15----14--15--14-----|
|----------------------------------------------------------------------------|
|----------------------------------------------------------------------------|
|----------------------------------------------------------------------------|


                         /\/\/\
|----------------------------------------------------------------------------|
|--------------------------------16-14-13-14-13------------------------------|
|-----------------------------------------------15-17-15h17p15p14-------17-16|
|-15---15--16--15--13--15-----------------------------------------16-15------|
|----------------------------------------------------------------------------|
|----------------------------------------------------------------------------|


                   /\/\/\
|----------------------------------------------------------------------------|
|--------------------------------------10-14-/19-13--------------------------|
|b17r16--14-------------------------11--------------14-----------------------|
|------------16--15--------------11--------------------16-15-13--------------|
|-----------------------------12---------------------------------------------|
|--------------------------14------------------------------------------------|



  [1:09]
     //// \\
|-13---------------------------------------------------------13-17/21--17----|
|-16-------------------------------------------13-----13-14---------------19-|
|-15b----------------------14-----14-15--14-15-----14------------------------|
|-------------14-15--14-15-----15--------------------------------------------|
|----------------------------------------------------------------------------|
|----------------------------------------------------------------------------|


    /\/\/\  /  \  /  \  /  \  /  \  /  \  /  \       \\\
|----------------------------------------------------------------------------|
|-18---------16----24----20----16----13----16--------------------------------|
|-----------------------------------------------<22>-------------------------|
|---------------------------------------------------------------15--19-15-19-|
|------------------------------------------------------------15--------------|
|---------------------------------------------------------17-----------------|


                                                       /\/\
|----------------------18-14--------21-18--14-----------------------------16-|
|------------18-13-18--------14---------------14-----------------------16----|
|--17-14-17----------------------15--------------15-------------16-17--------|
|----------------------------------------------------16------18--------------|
|----------------------------------------------------------------------------|
|----------------------------------------------------------------------------|


                               /\/\/\/\/\/\/
|-19--20-23-20--19-20-23--23b25----------------------------------------------|
|----------------------------------------------------------------------------|
|----------------------------------------------------------------------------|
|----------------------------------------------------------------------------|
|----------------------------------------------------------------------------|
|----------------------------------------------------------------------------|



  [3:40]
                                                                  /\/\/\/\/\
|----------------------------------------------------------------------------|
|----------------------------------------------------------------------------|
|-0h3h5h7-t10p7p5p3-/5h7h10h12-t15p12p10p7-/10h12h14h15-/17--17b19-----------|
|----------------------------------------------------------------------------|
|----------------------------------------------------------------------------|
|----------------------------------------------------------------------------|


                                   /\/\/\/\/\/\                            /\
|----------------------------------------------------------------------------|
|----------------------------------------------------------------------------|
|-17-15-14---14-15-15b17---15-14-12---------------10b12r10--7--5b7r5-7-5b7---|
|----------------------------------------------------------------------------|
|----------------------------------------------------------------------------|
|----------------------------------------------------------------------------|


 /\/\/\                                \/\/\/\/\/  \  / \  / \  / \  / \  / \
|----------------------------------------------------------------------------|
|--------------15-18---------------------------------------------------------|
|-----------15---------17b19----15---15-------------15---14---15---17---15---|
|--------15------------------------------------------------------------------|
|----------------------------------------------------------------------------|
|----------------------------------------------------------------------------|


    / \  /    \  /     /\/\/\                      /\/\/\
|---------------------------------------------18-20--------20p18p15----------|
|------------------------------------------20------------------------15h20p15|
|-17---19-----/24----24----------------19------------------------------------|
|------------------------------------20--------------------------------------|
|------------------------------17-22-----------------------------------------|
|----------------------------------------------------------------------------|


             /\/\
|-----------------------------------18-22-18---------------------------------|
|------------------------------18-----------18-------18----------------------|
|-15h19-15\14------------17-19-----------------19-------19-----------------19|
|------------------19/20--------------------------20-------20-----------20---|
|-------------------------------------------------------------20-----20------|
|----------------------------------------------------------------22----------|


          /\/\/\/\                                  /\             /\
|----18-22------------------------------18----18--22----(24b)25--25----25--25|
|-18--------------------------18----18-----18--------------------------------|
|-------------------------19-----19------------------------------------------|
|----------------------20----------------------------------------------------|
|-------------------20-------------------------------------------------------|
|----------------------------------------------------------------------------|


  /\/\/\                                           \\\      /\/\/\/\/\/\/\/\/
|----------------------------------------[etc-etc]---------------------------|
|--------------------------------------------------------22----22--22--22----|
|----------------------------8h11h14t17------------------24b---24b-24b-24b---|
|----------------------------------------------------------------------------|
|---------t18p15p12p9h12h15--------------------------------------------------|
|----------------------------------------------------------------------------|


 \/\/\/\/\/\/\/\/\/\/\/\/\/\/\/\/\/    ///// \\\\\      /////// \\\\\\\
|----------------------21---21--21--22---------------------------------------|
|-22--22--23---23--23--24b--24b-24b-24b-------------<22>---------------------|
|-24b-24b-24b--24b-24b------------------------------<22>---------------------|
|----------------------------------------------------------------------------|
|----------------------------------------------------------------------------|
|----------------------------------------------------------------------------|

            
            
Suggest correction
Creating personal tab
Creating personal tab
You can edit any tab online and save it as your Personal.

You can edit, replace or remove any tab part or add personal notes – all changes will be seen only by you.

Personal tabs can be accessed anytime from any device, even offline.
Learn more »
Give kudos to tab author, rate the tab!
1 2 3 4 5
comments
print report bad tab
guest
You may want to rate the tab now too:
select rating
Wanna post a correction for this tab? Suggest correction