Oops, an error
Loading. Please wait.

Vannesa bass

by Thermo
453 views 1 this week
no commentswrite comment
1 2 3 4 5
3 more votes to show rating
add to favorites
×
Save as Personal and add changes to this tab that will be seen only by you. Learn more ›
×
You can save this tab as Personal to edit and correct it or add notes. All changes will be seen only by you. Learn more »
launch autoscroll
font size
0
reset
guitar tuner
edit
Autoscroll
slow
fast
+/-
esc
set tempo
stop
Author
Esta es la tab de bajo
gracias a punkmex por el aporte

Esto junto con la tab de guitarra y de bateria es para tocar la cancion completa


INTRO

G--------------------------|
D--------------------------|
A-------3-3~--6-6~---------|
E-4-4~---------------------|

G---------------------------------------------------------------|
D---------------------------------------------------------------|
A---------------------------------3-3-3-3-3-3-3-6-6-6-6-6-6-6-6-|
E-4-4-4-4-4-4-4-4-4-4-4-4-4-4-4-4-------------------------------|


aqui lleva un efecto que no se como es la simbologia ques apaguar
el sonido de las cuerdas pero lo voi a poner asi (.)

G----------------------------------------------------------------------|
D----------------------------------------------------------------------|
A----------------------------------------3-3-3-3-3-3-3-6-6-6-6-6-6-6-6-|
E-4-4-4-4-4-4-4-4-4-4-4-4-4-4-4-4-4-4-4-4------------------------------|
                                  .......
verso

donde estas espero que................

G------------------------|
D------------------------|
A----33--------33--6~----|
E-44---------4~----------|

vuelve ya y dame...............

G-----------------------------------------------|
D-----------------------------------------------|
A------3~-6~-----------------3-3-3-3-6-6-6-6----|   x2
E-4~-4~--------4-4-4-4-4-4-4--------------------|
               .............
CORO
hoy quisiera ver tus................

G-------------------------------------------------|
D-------------------------------------------------|
A------------4-4-4-4-4-4--------------------------|
E-1-1-1-1-1-1------------4-4-4-4-4-4--3-3-3-3-3-3-|


G-------------------------------------------------------------|
D-------------------------------------------------------------|
A------------4-4-4-4-4-4--------------------------------------|
E-1-1-1-1-1-1------------4-4-4-4-4-4--3-3-3-3-3-3-1-1-1-1-1-1-|


despues biene el solo de guitarra
despues del solo toda la cancion es lo mismo
desde el primer verso y luego se brinca al coro

donde estas espero que...........
hoy quisiera ver tus ojos.......

y para el final se toca esto varias veces

G---------------------------------------------------------------|
D---------------------------------------------------------------|
A---------------------------------3-3-3-3-3-3-3-6-6-6-6-6-6-6-6-|
E-4-4-4-4-4-4-4-4-4-4-4-4-4-4-4-4-------------------------------|

y termina en G#

            
            
Suggest correction
Creating personal tab
Creating personal tab
You can edit any tab online and save it as your Personal.

You can edit, replace or remove any tab part or add personal notes – all changes will be seen only by you.

Personal tabs can be accessed anytime from any device, even offline.
Learn more »
Give kudos to tab author, rate the tab!
1 2 3 4 5
comments
print report bad tab
guest
You may want to rate the tab now too:
select rating
Wanna post a correction for this tab? Suggest correction