Oops, an error
Loading. Please wait.

Marty Beller Mask bass

290 views 3 this week
no commentswrite comment
1 2 3 4 5
2 more votes to show rating
add to favorites
×
Save as Personal and add changes to this tab that will be seen only by you. Learn more ›
×
You can save this tab as Personal to edit and correct it or add notes. All changes will be seen only by you. Learn more »
launch autoscroll
font size
0
reset
guitar tuner
edit
Autoscroll
slow
fast
+/-
esc
set tempo
stop
Intro:
G|-------------------|
D|-------------------|
A|-------------------|
E|-8---3---3-4-5---0-|

Verse:
G|---------------------------------------------|
D|---------------------------------------------|
A|---------3---5-5---5---5---------------------|
E|-5-5---5---5---------5---1-1---1-0-0---0-5-5-| x2

Pre-Chorus (Don't walk away from me...)
G|------------------------------------------------------------|
D|------------------------------------------------------------|
A|-------3-3---------3-3----------3-3-3-3---------------------|
E|-1-1---------1-1--------1-1-1-1---------3-3-3-3/15-15-15-15-|

Chorus:
G|-------------------------------------------------------------|
D|-------------------------------------------------------------|
A|-------------------------------------------------------------|
E|-1-1-1-1-8-8-8-8-10-10-10-10-5-5-5-5-1-1-1-1-3-3-3-3-5-5-5-5-|

Interlude:
(mostly guitar and drums, with this small riff in the middle)
G|---------|
D|---------|
A|---------|
E|-0-3-5-5-|

[Repeat Verse through Chorus]

[Repeat Intro for "Marty gets the mention..."]

[Repeat Pre-Chorus and Chorus]


     "Look again this isn't Marty..."
G|----------------------------------|
D|----------------------------------|
A|----------------------------------|
E|-/0-0-0-0-1-1-1-1-3-3-3-3-5-5-5-5-|

       I am real-ly Whit-ney Hou-ston..."
G|------------------------------------|
D|------------------------------------|
A|------------------------------------|
E|-/0-0-0-0-1-1-1-1-1-1-3-3-3-3-3-3-5-|

            
            
Suggest correction
Creating personal tab
Creating personal tab
You can edit any tab online and save it as your Personal.

You can edit, replace or remove any tab part or add personal notes – all changes will be seen only by you.

Personal tabs can be accessed anytime from any device, even offline.
Learn more »
Give kudos to tab author, rate the tab!
1 2 3 4 5
comments
print report bad tab
guest
You may want to rate the tab now too:
select rating
Wanna post a correction for this tab? Suggest correction