Oops, an error
Loading. Please wait.

Brand New Ways tab

143 views 1 this week
no commentswrite comment
1 2 3 4 5
3 more votes to show rating
add to favorites
×
Save as Personal and add changes to this tab that will be seen only by you. Learn more ›
×
You can save this tab as Personal to edit and correct it or add notes. All changes will be seen only by you. Learn more »
launch autoscroll
font size
0
reset
how to read this tab
guitar tuner
edit
Autoscroll
slow
fast
+/-
esc
set tempo
stop
Thief Club - Brand New Ways Tab

https://www.youtube.com/watch?v=vB1LJSSNZ30 <-- Video of guitar cover

Tuning: Half step down


Intro

D#|--2--4--7--2--4--2--4--2--7--5--
A#|--2--4--7--2--4--2--4--2--7--5--
F#|--4--6--9--4--6--2--6--4--9--5--
C#|--4--6--9--4--6--4--6--4--9--7--
G#|--2--4--7--2--4--4--4--2--7--7--
D#|-----------------2-----------5--


Whoever thought that sometimes life could go your way?

D#|--2--5--
A#|--2--5--
F#|--4--5--
C#|--4--7--
G#|--2--7--
D#|-----5--

I never thought that'd it'd go mine

D#|--2--5--
A#|--2--5--
F#|--4--5--
C#|--4--7--
G#|--2--7--
D#|-----5--

And though the years have passed, I'm still not perfect,

D#|--2--5--
A#|--2--5--
F#|--4--5--
C#|--4--7--
G#|--2--7--
D#|-----5--

but I wanna do this right

D#|--2--5--
A#|--2--5--
F#|--4--5--
C#|--4--7--
G#|--2--7--
D#|-----5--

Now I've got this one big chance to prove myself, and no one thinks I can

D#|--4--2--4--5--
A#|--4--2--4--5--
F#|--6--4--6--5--
C#|--6--4--6--7--
G#|--4--2--4--7--
D#|-----------5--

So I'll sit with my pen in hand 

D#|--4--2--
A#|--4--2--
F#|--6--4--
C#|--6--4--
G#|--4--2--
D#|--------

and write it out, before they get the chance to ask

D#|--4--5--
A#|--4--5--
F#|--6--5--
C#|--6--7--
G#|--4--7--
D#|-----5--

"What the hell are you waiting for?"

D#|--7--
A#|--7--
F#|--9--
C#|--9--
G#|--7--
D#|-----


And honestly, I'm not sure

D#|---5--
A#|---5--
F#|---5--
C#|---7--
G#|---7--
D#|---5--

Seems all I find are brand new ways fail

D#|---2--4--5--
A#|---2--4--5--
F#|---4--6--5--
C#|---4--6--7--
G#|---2--4--7--
D#|---------5--


(Distortion kicks in)

Outro


D#|--------------------------------
A#|--------------------------------
F#|--4--6--9--4--6-----6--4--9-----
C#|--4--6--9--4--6--4--6--4--9--7--
G#|--2--4--7--2--4--4--4--2--7--7--
D#|-----------------2-----------5--

            
            
Suggest correction
Creating personal tab
Creating personal tab
You can edit any tab online and save it as your Personal.

You can edit, replace or remove any tab part or add personal notes – all changes will be seen only by you.

Personal tabs can be accessed anytime from any device, even offline.
Learn more »
Give kudos to tab author, rate the tab!
1 2 3 4 5
comments
print report bad tab
guest
You may want to rate the tab now too:
select rating
Wanna post a correction for this tab? Suggest correction