Oops, an error
Loading. Please wait.

Shadows Of Ourselves bass

1,420 views 1 this week
1 commentread comment
1 2 3 4 5
1 last vote to show rating
add to favorites
×
Save as Personal and add changes to this tab that will be seen only by you. Learn more ›
×
You can save this tab as Personal to edit and correct it or add notes. All changes will be seen only by you. Learn more »
launch autoscroll
font size
0
reset
guitar tuner
edit
Autoscroll
slow
fast
+/-
esc
set tempo
stop
Difficulty
I think this should be the right tab... listen the song for the rithm

G|----------------------|-------------------------|
D|--0-------------------|----------------77--5-55-|
A|----------005-----550-|-------0--0--0-----------|
D|----------------------|-------------------------|



Thats what I think it goes like.
It's very easy but funny to play...

            
            
Suggest correction
Creating personal tab
Creating personal tab
You can edit any tab online and save it as your Personal.

You can edit, replace or remove any tab part or add personal notes – all changes will be seen only by you.

Personal tabs can be accessed anytime from any device, even offline.
Learn more »
Give kudos to tab author, rate the tab!
1 2 3 4 5
comments
print report bad tab
1 comment total.
0 reply
kevomatic 10 Jan 04, 2014 11:58 AM

Pretty good, but it sounds more like this to me:

G|----------------------|-------------------------|
D|--0-------------------|----------------77--5-55-|
A|----------553-----330-|-------0--0--0-----------|
E|----------------------|-------------------------|

guest
Wanna post a correction for this tab? Suggest correction