Oops, an error
Loading. Please wait.

Emerald tab

version 2
version 2

Whole song

  • Very accurate, well laid out tab. easy to read. has two guitar parts.

Interactive

229 views 1 this week
no commentswrite comment
1 2 3 4 5
3 more votes to show rating
add to favorites
×
Save as Personal and add changes to this tab that will be seen only by you. Learn more ›
×
You can save this tab as Personal to edit and correct it or add notes. All changes will be seen only by you. Learn more »
launch autoscroll
font size
0
reset
how to read this tab
guitar tuner
backing track
0:00
0:00
edit
Autoscroll
slow
fast
+/-
esc
set tempo
stop
About this tab version
Very accurate, well laid out tab. easy to read. has two guitar parts. Was this info helpful? Yes No
TITLE: Emerald - Lead
ARTIST: Thin Lizzy
LENGTH: 4:16
TUNING: E Flat (Eb Ab Db Gb Bb eb)
 By Fuchead


First Guitar tab for whole song. scroll passed lyrics for second guitar


    ''''  ''''  ''''
eb|-----|-----|-----|
Bb|-----|-----|-----|
Gb|-----|-----|-----|
Db|-----|-----|-----|
Ab|-----|-----|-----|
Eb|-----|-----|-----|

Riff (0:15 - 0:24)
                                 .  .  .  .  .  .  .  .  .  .  .

      '  '     '  '           '        '        '        '
eb|-----------------------|--------------------------------------|
Bb|-----------------------|--------------------------------------|
Gb|-----------------------|--------------------------------------|
Db|------------------5-p4-|--p2----------------------------------|
Ab|-----------------------|------0--0--0--0--0--0--0--0----------|
Eb|-----------------------|------------------------------3--3--3-|


      .  .  .  .  .  .  .  .  .  .

      '        '        '        '
eb|----------------------------------------|
Bb|----------------------------------------|
Gb|----------------------------------------|
Db|---------------------------------5-p4---|
Ab|---3--3--3--3--3--3--3--3--3--3---------|
Eb|----------------------------------------|


         .  .  .  .  .  .  .  .  .  .  .    . . . . . . . . . .

      '        '        '        '          '     '     '     '
eb|--------------------------------------|-------------------------|
Bb|--------------------------------------|-------------------------|
Gb|--------------------------------------|-------------------------|
Db|--p2----------------------------------|-------------------------|
Ab|------0--0--0--0--0--0--0--0--3--3--3-|-------------------------|
Eb|--------------------------------------|--3-3-3-3-3-3-3-3-3-3----|

Riff (0:24 - 0:32)
                                 .  .  .  .  .  .  .  .  .  .  .

      '  '     '  '           '        '        '        '
eb|-----------------------|--------------------------------------|
Bb|-----------------------|--------------------------------------|
Gb|-----------------------|--------------------------------------|
Db|------------------5-p4-|--p2----------------------------------|
Ab|-----------------------|------0--0--0--0--0--0--0--0----------|
Eb|-----------------------|------------------------------3--3--3-|


      .  .  .  .  .  .  .  .  .  .

      '        '        '        '
eb|--------------------------------------|
Bb|--------------------------------------|
Gb|--------------------------------------|
Db|---------------------------------5-p4-|
Ab|---3--3--3--3--3--3--3--3--3--3-------|
Eb|--------------------------------------|


         .  .  .  .  .  .  .  .  .  .

      '        '        '        '
eb|--------------------------------------|
Bb|--------------------------------------|
Gb|--------------------------------------|
Db|--p2----------------------------------|
Ab|------0--0--0--0--0--0--0--0----------|
Eb|------------------------------3--3--0-|

     Eb5     Eb5 Eb5 Eb5 Eb5 Eb5     Eb5 Eb5
       '           '           '           '
eb|-------------------------------------------------|
Bb|-------------------------------------------------|
Gb|----9-------9---9---9---9---9-------9---9--------|
Db|----9-------9---9---9---9---9-------9---9--------|
Ab|----7-------7---7---7---7---7-------7---7--------|
Eb|-------------------------------------------------|

Riff (0:32 - 0:40)


      '  '     '  '           '        '        '        '
eb|-----------------------|-------------------------------------|
Bb|-----------------------|-------------------------------------|
Gb|-----------------------|-------------------------------------|
Db|------------------5-p4-|--p2-----2-----2--2--2-----2---------|
Ab|-----------------------|------0--0-----0--0--0-----0--5--5---|
Eb|-----------------------|------------------------------3--3---|


      '        '        '        '           '        '        '        '
eb|--------------------------------------|-------------------------------------|
Bb|--------------------------------------|-------------------------------------|
Gb|--------------------------------------|-------------------------------------|
Db|---5-----5-----5--5--5-----5-----5-p4-|--p2-----2--2--2--2--2--2--2--5------|
Ab|---3-----3-----3--3--3-----3----------|------0--0--0--0--0--0--0--0--3------|
Eb|--------------------------------------|-------------------------------------|


     '     '     '     '
eb|-------------------------|
Bb|-------------------------|
Gb|-------------------------|
Db|-------------------------|
Ab|--5---5---5-5-5---5------|
Eb|--3---3---3-3-3---3------|

Riff (0:40 - 0:51)


      '     '  '     '        '        '        '        '
eb|-----------------------|-------------------------------------|
Bb|-----------------------|-------------------------------------|
Gb|-----------------------|-------------------------------------|
Db|------------------5-p4-|--p2-----2-----2--2--2-----2---------|
Ab|-----------------------|------0--0-----0--0--0-----0--5--5---|
Eb|-----------------------|------------------------------3--3---|


      '        '        '        '
eb|--------------------------------------|
Bb|--------------------------------------|
Gb|--------------------------------------|
Db|---5-----5-----5--5--5-----5-----5-p4-|
Ab|---3-----3-----3--3--3-----3----------|
Eb|--------------------------------------|


                                 .

      '        '        '        '
eb|--------------------------------------|
Bb|--------------------------------------|
Gb|--------------------------------------|
Db|--p2-----2--2--2--2--2--2--2----------|
Ab|------0--0--0--0--0--0--0--0----------|
Eb|------------------------------3--0--0-|

     Eb5     Eb5 Eb5 Eb5 Eb5 Eb5     Eb5 Eb5 Eb5 Eb5
       '           '           '           '
eb|--------------------------------------------------|
Bb|--------------------------------------------------|
Gb|----9-------9---9---9---9---9-------9---9---9---9-|
Db|----9-------9---9---9---9---9-------9---9---9---9-|
Ab|----7-------7---7---7---7---7-------7---7---7---7-|
Eb|--------------------------------------------------|

     Eb5     Eb5 Eb5 Eb5 Eb5
       '           '           '           '
eb|-------------------------------------------------|
Bb|-------------------------------------------------|
Gb|----9-------9---9---9---9---9--------------------|
Db|----9-------9---9---9---9---9---9----------------|
Ab|----7-------7---7---7---7---7--------------------|
Eb|-------------------------------------------------|

Riff (0:51 - 0:54)


       '           '           '           '            '     '     '     '
eb|--------------------------------------------------|-------------------------|
Bb|--------------------------------------------------|-------------------------|
Gb|--------------------------------------------------|-------------------------|
Db|----7---7---7---7---7---7---7--p5-----------------|-------------------------|
Ab|----0-------------------------------7-5s3---3-----|-------------------------|
Eb|------------------------------------------------5-|--5-5-5-5-5-5-3----------|

Riff (0:54 - 0:58)


     '     '     '     '        '     '     '     '
eb|--------------------------|--------------------------|
Bb|--------------------------|--------------------------|
Gb|--------------------------|--------------------------|
Db|------------------------5-|--5-5-5-5---5-7---------0-|
Ab|------------3-3-3-3-3-5---|----------7---------------|
Eb|--3-3-3-3-5---------------|--------------------------|

Riff (0:58 - 1:02)


      '        '        '        '           '        '        '        '
eb|--------------------------------------|-------------------------------------|
Bb|--------------------------------------|-------------------------------------|
Gb|---5--5--5--5--5--5--5----------------|-------------------------------------|
Db|------------------------7-p5--7-p5----|---5---------------------------------|
Ab|------------------------------------7-|------7--5--3-h5--3------------------|
Eb|--------------------------------------|---------------------3---------------|

Riff (1:02 - 1:06)


     '     '     '     '        '     '     '     '
eb|--------------------------|-------------------------|
Bb|--------------------------|-------------------------|
Gb|--------------------------|-------------------------|
Db|------------------------5-|--5-5-5-5---5-7----------|
Ab|------------3-3-3-3-3-5---|----------7--------------|
Eb|--3---3-3-5---------------|-------------------------|

Riff (1:06 - 1:14)


      '     '  '     '        '        '        '        '
eb|-----------------------|-------------------------------------|
Bb|-----------------------|-------------------------------------|
Gb|-----------------------|-------------------------------------|
Db|------------------5-p4-|--p2-----2-----2--2--2-----2---------|
Ab|-----------------------|------0--0-----0--0--0-----0--5--5---|
Eb|-----------------------|------------------------------3--3---|


      '        '        '        '           '        '        '        '
eb|--------------------------------------|-------------------------------------|
Bb|--------------------------------------|-------------------------------------|
Gb|--------------------------------------|-------------------------------------|
Db|---5-----5-----5--5--5-----5-----5-p4-|--p2-----2--2--2--2--2--2--2--5------|
Ab|---3-----3-----3--3--3-----3----------|------0--0--0--0--0--0--0--0--3------|
Eb|--------------------------------------|-------------------------------------|


     '     '     '     '
eb|-------------------------|
Bb|-------------------------|
Gb|-------------------------|
Db|-------------------------|
Ab|--5---5---5-5-5---5------|
Eb|--3---3---3-3-3---3------|

Riff (1:14 - 1:22)


      '     '  '  '           '        '        '        '
eb|-----------------------|-------------------------------------|
Bb|-----------------------|-------------------------------------|
Gb|-----------------------|-------------------------------------|
Db|------------------5-p4-|--p2-----2-----2--2--2-----2---------|
Ab|-----------------------|------0--0-----0--0--0-----0--5--5---|
Eb|-----------------------|------------------------------3--3---|


      '        '        '        '
eb|--------------------------------------|
Bb|--------------------------------------|
Gb|--------------------------------------|
Db|---5-----5-----5--5--5-----5-----5-p4-|
Ab|---3-----3-----3--3--3-----3----------|
Eb|--------------------------------------|


                                 .

      '        '        '        '
eb|--------------------------------------|
Bb|--------------------------------------|
Gb|--------------------------------------|
Db|--p2-----2--2--2--2--2--2--2----------|
Ab|------0--0--0--0--0--0--0--0----------|
Eb|------------------------------3--0--0-|

     Eb5     Eb5 Eb5 Eb5 Eb5 Eb5     Eb5 Eb5
       '           '           '           '
eb|-------------------------------------------------|
Bb|-------------------------------------------------|
Gb|----9-------9---9---9---9---9-------9---9--------|
Db|----9-------9---9---9---9---9-------9---9--------|
Ab|----7-------7---7---7---7---7-------7---7--------|
Eb|-------------------------------------------------|

Riff (1:22 - 1:30)


      '     '  '  '           '        '        '        '
eb|-----------------------|-------------------------------------|
Bb|-----------------------|-------------------------------------|
Gb|-----------------------|-------------------------------------|
Db|------------------5-p4-|--p2-----2-----2--2--2-----2---------|
Ab|-----------------------|------0--0-----0--0--0-----0--5--5---|
Eb|-----------------------|------------------------------3--3---|


      '        '        '        '           '        '        '        '
eb|--------------------------------------|-------------------------------------|
Bb|--------------------------------------|-------------------------------------|
Gb|--------------------------------------|-------------------------------------|
Db|---5-----5-----5--5--5-----5-----5-p4-|--p2-----2--2--2--2--2--2--2--5------|
Ab|---3-----3-----3--3--3-----3----------|------0--0--0--0--0--0--0--0--3------|
Eb|--------------------------------------|-------------------------------------|


     '     '     '     '
eb|-------------------------|
Bb|-------------------------|
Gb|-------------------------|
Db|-------------------------|
Ab|--5---5---5-5-5---5------|
Eb|--3---3---3-3-3---3------|

Riff (1:30 - 1:41)


      '  '     '  '           '        '        '        '
eb|-----------------------|-------------------------------------|
Bb|-----------------------|-------------------------------------|
Gb|-----------------------|-------------------------------------|
Db|------------------5-p4-|--p2-----2-----2--2--2-----2---------|
Ab|-----------------------|------0--0-----0--0--0-----0--5--5---|
Eb|-----------------------|------------------------------3--3---|


      '        '        '        '
eb|--------------------------------------|
Bb|--------------------------------------|
Gb|--------------------------------------|
Db|---5-----5-----5--5--5-----5-----5-p4-|
Ab|---3-----3-----3--3--3-----3----------|
Eb|--------------------------------------|


                                    .

      '        '           '        '
eb|-----------------------------------------|
Bb|-----------------------------------------|
Gb|-----------------------------------------|
Db|--p2-----2--2--2--2-----2--2--2----------|
Ab|------0--0--0--0--0-----0--0--0----------|
Eb|---------------------------------3--0--0-|

     Eb5     Eb5 Eb5 Eb5 Eb5 Eb5     Eb5 Eb5 Eb5 Eb5
       '           '           '           '
eb|--------------------------------------------------|
Bb|--------------------------------------------------|
Gb|----9-------9---9---9---9---9-------9---9---9---9-|
Db|----9-------9---9---9---9---9-------9---9---9---9-|
Ab|----7-------7---7---7---7---7-------7---7---7---7-|
Eb|--------------------------------------------------|

     Eb5     Eb5 Eb5 Eb5 Eb5
       '           '           '           '
eb|-------------------------------------------------|
Bb|-------------------------------------------------|
Gb|----9-------9---9---9---9---9--------------------|
Db|----9-------9---9---9---9---9--------------------|
Ab|----7-------7---7---7---7---7---7----------------|
Eb|-------------------------------------------------|

Riff (1:41 - 1:45)


       '           '           '           '            '     '     '     '
eb|--------------------------------------------------|-------------------------|
Bb|--------------------------------------------------|-------------------------|
Gb|--------------------------------------------------|-------------------------|
Db|----7---7---7---7---7---7---7--p5-----------------|-------------------------|
Ab|----0-------------------------------7-5s3---3-----|-------------------------|
Eb|------------------------------------------------5-|--5-5-5-5-5-5-3----------|

Riff (1:45 - 1:49)


     '     '     '     '        '     '     '     '
eb|--------------------------|--------------------------|
Bb|--------------------------|--------------------------|
Gb|--------------------------|--------------------------|
Db|------------------------5-|--5-5-5-5---5-7---------0-|
Ab|------------3-3-3-3-3-5---|----------7---------------|
Eb|--3-3-3-3-5---------------|--------------------------|

Riff (1:49 - 1:53)


      '        '        '        '           '        '        '        '
eb|--------------------------------------|-------------------------------------|
Bb|--------------------------------------|-------------------------------------|
Gb|---5--5--5--5--5--5--5----------------|-------------------------------------|
Db|------------------------7-p5--7-p5----|---5---------------------------------|
Ab|------------------------------------7-|------7--5--3-h5--3------------------|
Eb|--------------------------------------|---------------------3---------------|

Riff (1:53 - 1:57)


     '     '     '     '        '     '     '     '
eb|--------------------------|-------------------------|
Bb|--------------------------|-------------------------|
Gb|--------------------------|-------------------------|
Db|------------------------5-|--5-5-5-5---5-7----------|
Ab|------------3-3-3-3-3-5---|----------7--------------|
Eb|--3---3-3-5---------------|-------------------------|

Bridge (1:57 - 2:05)
      .  .  .  .  .  .  .  .  .             .  .  .  .  .  .  .  .  .

      '        '        '        '          '        '        '        '
eb|-------------------------------------|-------------------------------------|
Bb|-------------------------------------|-------------------------------------|
Gb|-------------------------------------|-------------------------------------|
Db|------------------------------5-h7---|------------------------------5-h7---|
Ab|---0--0--0--0--0--0--0--0--0---------|---0--0--0--0--0--0--0--0--0--5------|
Eb|-------------------------------------|-------------------------------------|


      .  .  .  .  .  .  .  .  .             .  .  .  .  .  .  .  .  .

      '        '        '        '          '        '        '        '
eb|-------------------------------------|-------------------------------------|
Bb|-------------------------------------|-------------------------------------|
Gb|-------------------------------------|-------------------------------------|
Db|------------------------------5-h7---|------------------------------5-h7---|
Ab|---0--0--0--0--0--0--0--0--0---------|---0--0--0--0--0--0--0--0--0--5------|
Eb|-------------------------------------|-------------------------------------|

Bridge (2:05 - 2:15)
      .  .  .  .  .  .  .  .  .             .  .  .  .  .  .  .  .  .

      '        '        '        '          '        '        '        '
eb|-------------------------------------|-------------------------------------|
Bb|-------------------------------------|-------------------------------------|
Gb|-------------------------------------|-------------------------------------|
Db|------------------------------5-h7---|------------------------------5-h7---|
Ab|---0--0--0--0--0--0--0--0--0---------|---0--0--0--0--0--0--0--0--0--5------|
Eb|-------------------------------------|-------------------------------------|


      .  .  .  .  .  .  .  .  .

      '        '        '        '
eb|-------------------------------------|
Bb|-------------------------------------|
Gb|-------------------------------------|
Db|------------------------------5-h7---|
Ab|---0--0--0--0--0--0--0--0--0---------|
Eb|-------------------------------------|


        .    .    .    .    .    .    .    .    .
                                                  Ebm7
        '              '              '         '            ''''
eb|--------------------------------------------------7-----|-----|
Bb|--------------------------------------------------8-----|-----|
Gb|--------------------------------------------------7-----|-----|
Db|--------------------------------------------------9-----|-----|
Ab|-----0----0----0----0----0----0----0----0----0----7-----|-----|
Eb|--------------------------------------------------0-----|-----|

Noguitar (2:15 - 2:16)


    '''
eb|----|
Bb|----|
Gb|----|
Db|----|
Ab|----|
Eb|----|

Riff (2:16 - 2:20)


     ' '   '         '        '        '        '
eb|--------------|--------------------------------------|
Bb|--------------|---5----------------------------------|
Gb|----------5-7-|------7-p5--7-p5-p4--5-p4--------5-h7-|
Db|--------------|---------------------------7----------|
Ab|--------------|--------------------------------------|
Eb|--------------|--------------------------------------|


      '        '        '        '
eb|-------------------------------------|
Bb|---5-----------------8---------------|
Gb|------7-p5--7-p5-p4------------------|
Db|-------------------------------------|
Ab|-------------------------------------|
Eb|-------------------------------------|

Riff (2:20 - 2:24)


      '     '  '     '         '           '           '           '
eb|-----------------------|--------------------------------------------------|
Bb|------------------8-10-|---12-p10--p8--10--p8--p6---8--p6--p5---6--p5-----|
Gb|-----------------------|------------------------------------------------7-|
Db|-----------------------|--------------------------------------------------|
Ab|-----------------------|--------------------------------------------------|
Eb|-----------------------|--------------------------------------------------|


      '        '        '        '
eb|-------------------------------------|
Bb|---5---------------------------------|
Gb|------7-p5--7-p5-p4--5---------------|
Db|-------------------------------------|
Ab|-------------------------------------|
Eb|-------------------------------------|

Riff (2:24 - 2:28)


     '   ' '   '       '        '        '        '
eb|----------------|--------------------------------------|
Bb|----------------|---5----------------------------------|
Gb|------------5-7-|------7-p5--7-p5-p4--5-p4--------5-h7-|
Db|----------------|---------------------------7----------|
Ab|----------------|--------------------------------------|
Eb|----------------|--------------------------------------|


      '        '        '        '
eb|-------------------------------------|
Bb|---5-----------------8---------------|
Gb|------7-p5--7-p5-p4------------------|
Db|-------------------------------------|
Ab|-------------------------------------|
Eb|-------------------------------------|

Riff (2:28 - 2:34)


      '     '  '     '         '           '           '           '
eb|-----------------------|--------------------------------------------------|
Bb|------------------8-10-|---12-p10--p8--10--p8--p6---8--p6--p5---6--p5-----|
Gb|-----------------------|------------------------------------------------7-|
Db|-----------------------|--------------------------------------------------|
Ab|-----------------------|--------------------------------------------------|
Eb|-----------------------|--------------------------------------------------|


      '        '        '        '        ''
eb|-------------------------------------|---|
Bb|---5---------------------------------|---|
Gb|------7-p5--7-p5-p4--5---------------|---|
Db|-------------------------------------|---|
Ab|-------------------------------------|---|
Eb|-------------------------------------|---|

Riff (2:34 - 2:38)


      '        '        '        '            '       '       '       '
eb|--------------------------------------|----------------------------------|
Bb|--------------------------------------|----------------------------------|
Gb|---7-h9--9--9--9--9--9--9--9--9--9--9-|--9s7---5-------------------------|
Db|---7-----7--7--7--7--7--7--7--7--7--7-|------------7---5-----------------|
Ab|--------------------------------------|--------------------7--p5---------|
Eb|--------------------------------------|----------------------------8---8-|

Riff (2:38 - 2:42)


       '           '           '           '
eb|--------------------------------------------------|
Bb|----7---8-----------8-----------8-----------------|
Gb|----6---------6s7-------7-6s7-----6s7---7---7--p4-|
Db|--------------------------------------------------|
Ab|--------------------------------------------------|
Eb|--------------------------------------------------|


       '                   '               '                   '
eb|-------------------------------------------------------------------------|
Bb|-------------------------------------------------------------------------|
Gb|--7b9--------------------------p5-------7--p5----------------------------|
Db|------------------------------------7---------------7-------5--h7--------|
Ab|-------------------------------------------------------------------------|
Eb|-------------------------------------------------------------------------|

Riff (2:42 - 2:46)


      '                 '                 '                 '
eb|-------------------------------------------------------------------------|
Bb|-------------------------------------------------------------------------|
Gb|---7-h9--------9-----9-----9-----9-----9-----9-----9-----9-----9-----9---|
Db|---7-----------------7-----------7-----------7-----------7-----------7---|
Ab|-------------------------------------------------------------------------|
Eb|-------------------------------------------------------------------------|


         '                                   '                                   '
                            '
eb|--------------------------------------------------------------------------------------|
Bb|---8s10----10----------------10-------------------10b13----------------------10----10-|
Gb|--------------------------------------------------------------------------------------|
Db|--------------------------------------------------------------------------------------|
Ab|--------------------------------------------------------------------------------------|
Eb|--------------------------------------------------------------------------------------|

Riff (2:46 - 2:50)

eb|
Bb|
Gb|
Db|
Ab|
Eb|


       '                       '                       '                       '
eb|-------------------------------------------------------------------------------------------------|
Bb|-------------------------------------------------------------------------------------------------|
Gb|-------------------------------------------------------------------------------------------------|
Db|----5--h7-----------------5s7---7-----------7-----5s7---7---7-------7----------------------------|
Ab|-------------------------------------------------------------------------------------------------|
Eb|-------------------------------------------------------------------------------------------------|


        '                   '                   '                   '
eb|--------------------------------------------------5-------------------------|
Bb|--------------------7----------------------------------5------8b10-8b10-----|
Gb|-----5--------------7---p5---------5-------7b9------------------------------|
Db|----------7-------------------7---------------------------------------------|
Ab|----------------------------------------------------------------------------|
Eb|----------------------------------------------------------------------------|

Riff (2:50 - 2:53)


       '           '           '           '
eb|--------------------------------------------------|
Bb|--------3-------3-------3-------3-------3-----3b4-|
Gb|--5b7-----5b7-----5b7-----5b7-----5b7-----5b7-----|
Db|--------------------------------------------------|
Ab|--------------------------------------------------|
Eb|--------------------------------------------------|


       '                   '                   '                   '
eb|---------------------------------------------------------------------------------|
Bb|----------3b4--------------------------------------------------------------------|
Gb|--5b7-----------5-----7b9----------p5--------------------------------------------|
Db|----------------------------------------7---7----------------------p5------------|
Ab|-----------------------------------------------------------------------h7--------|
Eb|---------------------------------------------------------------------------------|

Riff (2:53 - 2:57)


     '   '   '   '
eb|------------------|
Bb|------------------|
Gb|----------------0-|
Db|------------------|
Ab|------------------|
Eb|------------------|


         '                                   '                                   '
                            '
eb|---------------------------------------------------------------------------------------------------------|
Bb|-----------------------10----------------------------10----------12----------13----------------------13--|
Gb|--12b14-------------------------------12b14--------------------------------------------------------------|
Db|---------------------------------------------------------------------------------------------------------|
Ab|---------------------------------------------------------------------------------------------------------|
Eb|---------------------------------------------------------------------------------------------------------|


eb|-----------------------------|
Bb|--------p12---p10------------|
Gb|---------------------12------|
Db|-----------------------------|
Ab|-----------------------------|
Eb|-----------------------------|


         '                 '                 '                 '
eb|------------------------------|------------------------------------------|
Bb|-----13----10-13b15-----------|----------13---p10------------------------|
Gb|------------------------------|-------------------12b14-12b14------------|
Db|------------------------------|------------------------------------------|
Ab|------------------------------|------------------------------------------|
Eb|------------------------------|------------------------------------------|

Riff (2:57 - 3:01)


      '     '  '     '           '           '           '           '
eb|-----------------------|-----------------------------------15----15------|
Bb|-----------------------|-----13----15---p13---h15-15b17----15----15------|
Gb|--------------------14-|-------------------------------------------------|
Db|-----------------------|-------------------------------------------------|
Ab|-----------------------|-------------------------------------------------|
Eb|-----------------12----|-------------------------------------------------|


         '                 '                 '                 '
eb|-------------------------------------------------------------------------|
Bb|--15b17---------p13------------------------------------------------------|
Gb|-----------------------14----14----------12------------------------------|
Db|-------------------------------------------------------------------------|
Ab|-------------------------------------------------------------------------|
Eb|-----------------------------------------------------------12------------|

Riff (3:01 - 3:05)


       '           '           '           '
eb|--------------------------------------------------|
Bb|--------------------------------------------------|
Gb|----------------------------------------5-------5-|
Db|--------------------5-------5--h6--h7-------7-----|
Ab|--------3-5s7---7-------7-------------------------|
Eb|----5---------------------------------------------|


        '                             '                        '
    '
eb|----------------------------------------------------------------------------------------------------------|
Bb|-----------------------------------------------------------------------------8b10------8b10------8b10-----|
Gb|---7b9--------------------------------------p5--------------7--------p5-----------------------------------|
Db|--------------------------------------------------7-------------------------------------------------------|
Ab|----------------------------------------------------------------------------------------------------------|
Eb|----------------------------------------------------------------------------------------------------------|

Riff (3:05 - 3:09)


     '     '     '     '         '        '        '        '
eb|--------------------------|--------------------------------------|
Bb|--------------------------|------5--8--5--8--9-10--8--9-10-12-10-|
Gb|--------5---5-6-7-5-6-7-7-|---8----------------------------------|
Db|--7-5-7---7---------------|--------------------------------------|
Ab|--------------------------|--------------------------------------|
Eb|--------------------------|--------------------------------------|

Riff (3:09 - 3:13)


         '                 '                 '                 '
eb|-----------------------------------------------------15----------15------|
Bb|-----12----13----12----13----15----13-15b17----------15----------15------|
Gb|-------------------------------------------------------------------------|
Db|-------------------------------------------------------------------------|
Ab|-------------------------------------------------------------------------|
Eb|-------------------------------------------------------------------------|


      '        '        '        '
eb|--15----15----15----15----15----15---|
Bb|--15----15----15----15----15----15---|
Gb|-------------------------------------|
Db|-------------------------------------|
Ab|-------------------------------------|
Eb|-------------------------------------|

Riff (3:13 - 3:17)


      '        '        '        '
eb|--15-15-15-15-15-15-15-15-15-15----15-15-|
Bb|--15-15-15-15-15-15-15-15-15-15----15-15-|
Gb|-----------------------------------------|
Db|-----------------------------------------|
Ab|-----------------------------------------|
Eb|-----------------------------------------|


      '        '        '        '
eb|--15-15-15-15-15-15-15-15-15-15-15-15-|
Bb|--15-15-15-15-15-15-15-15-15-15-15-15-|
Gb|--------------------------------------|
Db|--------------------------------------|
Ab|--------------------------------------|
Eb|--------------------------------------|

Riff (3:17 - 3:21)


      '        '        '           '
eb|--15-15-15-15-15-15----15-15-15-15-15-15-|
Bb|--15-15-15-15-15-15----15-15-15-15-15-15-|
Gb|-----------------------------------------|
Db|-----------------------------------------|
Ab|-----------------------------------------|
Eb|-----------------------------------------|


       '           '           '           '
eb|---15---------------------------------------------|
Bb|---15-p13--13--15-p13--13--15-p13--13--15-p13--13-|
Gb|--------------------------------------------------|
Db|--------------------------------------------------|
Ab|--------------------------------------------------|
Eb|--------------------------------------------------|

Riff (3:21 - 3:25)


         '                 '                 '                 '
eb|--15b17-15b17-------------15b17-------15b17-15b17-------15b17----12-------|
Bb|--------------------------------------------------------------------15b17-|
Gb|--------------------------------------------------------------------------|
Db|--------------------------------------------------------------------------|
Ab|--------------------------------------------------------------------------|
Eb|--------------------------------------------------------------------------|


       '           '           '           '
eb|--------------------------------------------------|
Bb|------p13--15--13-p12--13--12---------------------|
Gb|-------------------------------14--12--14-p12-----|
Db|-----------------------------------------------14-|
Ab|--------------------------------------------------|
Eb|--------------------------------------------------|

Riff (3:25 - 3:29)


         '                 '                 '                 '
eb|--------------------------------------------------------------------------|
Bb|--------------------------------------------------------------------------|
Gb|-----------------------------------------------12----------12----14----12-|
Db|-----12----10----12----10----12----10-12s14----------14-------------------|
Ab|--------------------------------------------------------------------------|
Eb|--------------------------------------------------------------------------|


         '                 '                 '                 '
eb|--------------------------------------------------------------------------|
Bb|-----------12----------12----13----12-13s15----------13-15b17----------15-|
Gb|-----14----------14-------------------------------------------------------|
Db|--------------------------------------------------------------------------|
Ab|--------------------------------------------------------------------------|
Eb|--------------------------------------------------------------------------|

Riff (3:29 - 3:33)


       '           '           '           '
eb|---12--14--12--14--15--14--15-h17--15--17--19----|
Bb|-------------------------------------------------|
Gb|-------------------------------------------------|
Db|-------------------------------------------------|
Ab|-------------------------------------------------|
Eb|-------------------------------------------------|


      '        '        '        '
eb|--19-19-19-19-19-19-19----19-19----19-|
Bb|--------------------------------------|
Gb|--------------------------------------|
Db|--------------------------------------|
Ab|--------------------------------------|
Eb|--------------------------------------|

Riff (3:33 - 3:37)


      '        '        '        '
eb|--19----20----19----20----19----20---|
Bb|-------------------------------------|
Gb|-------------------------------------|
Db|-------------------------------------|
Ab|-------------------------------------|
Eb|-------------------------------------|


         '                 '                 '                 '
eb|--20b22-------20b22-------20b22-------20b22-------20b22-------20b22------|
Bb|-------------------------------------------------------------------------|
Gb|-------------------------------------------------------------------------|
Db|-------------------------------------------------------------------------|
Ab|-------------------------------------------------------------------------|
Eb|-------------------------------------------------------------------------|

Riff (3:37 - 3:41)


         '                 '                 '                 '
eb|--20b22-20b22----------20----17-------------------------------------------|
Bb|--------------------------------20b22----------17----------------15-------|
Gb|-----------------------------------------------------19-17b19-------17b19-|
Db|--------------------------------------------------------------------------|
Ab|--------------------------------------------------------------------------|
Eb|--------------------------------------------------------------------------|


         '                 '                 '                 '
eb|--------------------------------------------------------------------------|
Bb|-----19----------15----------15----------15----------19----------15-------|
Gb|-----17-17b19-------17b19-------17b19-------17b19----17-17b19----------17-|
Db|--------------------------------------------------------------------------|
Ab|--------------------------------------------------------------------------|
Eb|--------------------------------------------------------------------------|

Riff (3:41 - 3:44)


         '                 '                 '                 '
eb|--------------------------------------------------------------------------|
Bb|--------------------------------------------------------------------------|
Gb|--19b21---p17-------19b21---p17-------19b21---p17-------19b21---p17-------|
Db|-----------------19----------------19----------------19----------------19-|
Ab|--------------------------------------------------------------------------|
Eb|--------------------------------------------------------------------------|


         '                 '                 '                 '
eb|-------------------------------------------------------------------------|
Bb|-----------------17----17----20----17-20b22-20b22-------20b22------------|
Gb|-----19-19b21------------------------------------------------------------|
Db|-------------------------------------------------------------------------|
Ab|-------------------------------------------------------------------------|
Eb|-------------------------------------------------------------------------|

Riff (3:44 - 3:48)


         '           '           '           '
eb|--------------------------------------------------------|
Bb|--------------------------------------------------20b22-|
Gb|--------------------------------------------------------|
Db|--------------------------------------------------------|
Ab|--------------------------------------------------------|
Eb|--------------------------------------------------------|


         '                 '                       '                 '
eb|--------------------------------------------------------------------------------------|
Bb|--------------20b22-------20b22-------20b22-------------20b22-------20b22-------20b22-|
Gb|--------------------------------------------------------------------------------------|
Db|--------------------------------------------------------------------------------------|
Ab|--------------------------------------------------------------------------------------|
Eb|--------------------------------------------------------------------------------------|


         '                 '                 '                 '
eb|-----------17----------------17----------17-------------------------------|
Bb|-----------17----------17----------20----------15----------19----------19-|
Gb|--------------19b21-------------------------------17b19----17-17b19----17-|
Db|--------------------------------------------------------------------------|
Ab|--------------------------------------------------------------------------|
Eb|--------------------------------------------------------------------------|

Riff (3:48 - 3:52)


         '                 '                 '                 '
eb|--------------------------------------------------------------------------|
Bb|-----------15----------15-------------------------------------------------|
Gb|--17b19-------17b19----------17----16----17----16----12----12----14----12-|
Db|--------------------------------------------------------------------------|
Ab|--------------------------------------------------------------------------|
Eb|--------------------------------------------------------------------------|


         '                 '                 '                 '
eb|-----------------------------------------15----------15----------15------|
Bb|-----------13----------13-15b17----------15----------15----------15------|
Gb|-----14----------14------------------------------------------------------|
Db|-------------------------------------------------------------------------|
Ab|-------------------------------------------------------------------------|
Eb|-------------------------------------------------------------------------|

Riff (3:52 - 3:56)


       '           '           '           '            '     '     '     '
eb|--------------------------------------------------|-------------------------|
Bb|--------------------------------------------------|-------------------------|
Gb|--------------------------------------------------|-------------------------|
Db|----7---7---7---7---7---7---7--p5-----------------|-------------------------|
Ab|------------------------------------7-5s3---3-----|-------------------------|
Eb|------------------------------------------------5-|--5-5-5-5-5-5-3----------|

Riff (3:56 - 4:00)


     '     '     '     '        '     '     '     '
eb|--------------------------|-------------------------|
Bb|--------------------------|-------------------------|
Gb|--------------------------|-------------------------|
Db|------------------------5-|--5-5-5-5---5-7----------|
Ab|------------3-3-3-3-3-5---|----------7--------------|
Eb|--3-3-3-3-5---------------|-------------------------|

Riff (4:00 - 4:04)


      '        '        '        '           '        '        '        '
eb|--------------------------------------|-------------------------------------|
Bb|--------------------------------------|-------------------------------------|
Gb|---5--5--5--5--5--5--5----------------|-------------------------------------|
Db|------------------------7-p5--7-p5----|-------------------------------------|
Ab|------------------------------------7-|---5-h7-p5--3-h5--3------------------|
Eb|--------------------------------------|---------------------3---------------|

Riff (4:04 - 4:11)


     '     '     '     '
eb|--------------------------|
Bb|--------------------------|
Gb|--------------------------|
Db|------------------------5-|
Ab|------------3-3-3-3-3-5---|
Eb|--3-3-3-3-5---------------|

                                         G#5
         '                 '                 '                 '
eb|-------------------------------------------------------------------------|
Bb|-------------------------------------------------------------------------|
Gb|------------------------------------------9------------------------------|
Db|------5-----5-----5-----5-----------5-----7------------------------------|
Ab|------------------------------7-----------0------------------------------|
Eb|-------------------------------------------------------------------------|


    ''''  ''''
eb|-----|-----|
Bb|-----|-----|
Gb|-----|-----|
Db|-----|-----|
Ab|-----|-----|
Eb|-----|-----|

Noguitar (4:11 - 4:16)


    ''''  ''''
eb|-----|-----|
Bb|-----|-----|
Gb|-----|-----|
Db|-----|-----|
Ab|-----|-----|
Eb|-----|-----|


Down from the glen came the marching men
With their shields and their swords
To fight the fight they believed to be right
Overthrow the overlords

To the town where there was plenty
They brought plunder, swords and flame
When they left the town was empty
Children would never play again

From their graves I heard the fallen
Above the battle cry
By that bridge near the border
There were many more to die

Then onward over the mountain
And outward towards the sea
They had come to claim the emerald
Without it they could not leave

*********************
| h   Hummer-on
| p   Pull-off
| b   Bend
****************


TITLE: Emerald - Rhythm
ARTIST: Thin Lizzy
LENGTH: 4:16 (MAXIMUM DIFFICULTY LEVEL)
TUNING: E Flat (Eb Ab Db Gb Bb eb)

Second guitar part, 
                     
                     
    ''''  ''''  '''' 
eb|-----|-----|-----|
Bb|-----|-----|-----|
Gb|-----|-----|-----|
Db|-----|-----|-----|
Ab|-----|-----|-----|
Eb|-----|-----|-----|



Verse (0:15 - 0:24)
                                                                         
                                                                         
      '  '     '  '          ' ' ' '     '     '  '     '       ' ' ' '  
eb|-----------------------|----------|-----------------------|----------|
Bb|-----------------------|----------|-----------------------|----------|
Gb|-----------------------|----------|-----------------------|----------|
Db|-----------------------|----------|---5-------------------|--------5-|
Ab|------------------3-p2-|----------|---3--------------3-p2-|--------3-|
Eb|-----------------------|--5-----3-|-----------------------|--5-------|


             
             
     ' ' ' ' 
eb|---------|
Bb|---------|
Gb|---------|
Db|---------|
Ab|--5------|
Eb|--3------|



Verse (0:24 - 0:32)
                                                              
                                                              
      '  '     '  '          ' ' ' '     '  '     '  '        
eb|-----------------------|----------|-----------------------|
Bb|-----------------------|----------|-----------------------|
Gb|-----------------------|----------|-----------------------|
Db|-----------------------|----------|---5-------------------|
Ab|------------------3-p2-|----------|---3--------------3-p2-|
Eb|-----------------------|--5-----3-|-----------------------|


                       .                                                        
                                Eb5     Eb5 Eb5 Eb5 Eb5 Eb5     Eb5 Eb5         
     '     '     '     '          '           '           '           '         
eb|--------------------------|-------------------------------------------------|
Bb|--------------------------|-------------------------------------------------|
Gb|--------------------------|----9-------9---9---9---9---9-------9---9--------|
Db|--------------------------|----9-------9---9---9---9---9-------9---9--------|
Ab|--------------------------|----7-------7---7---7---7---7-------7---7--------|
Eb|--5-----------------3---0-|-------------------------------------------------|



Verse (0:32 - 0:40)
                                                                              
                                                                              
      '  '     '  '          '     '     '     '         '  '     '  '        
eb|-----------------------|--------------------------|-----------------------|
Bb|-----------------------|--------------------------|-----------------------|
Gb|-----------------------|--------------------------|-----------------------|
Db|-----------------------|--------------------------|---5-------------------|
Ab|------------------3-p2-|--------------------------|---3--------------3-p2-|
Eb|-----------------------|--5-----------------3---0-|-----------------------|


                                       
                                       
     '     '     '     '       ' ' ' ' 
eb|-------------------------|---------|
Bb|-------------------------|---------|
Gb|-------------------------|---------|
Db|--------------------5----|---------|
Ab|--------------------3----|--5------|
Eb|--5---------------0------|--3------|



Verse (0:40 - 0:51)
                                                                              
                                                                              
      '     '  '     '       '     '     '     '         '     '  '     '     
eb|-----------------------|--------------------------|-----------------------|
Bb|-----------------------|--------------------------|-----------------------|
Gb|-----------------------|--------------------------|-----------------------|
Db|-----------------------|--------------------------|---5-------------------|
Ab|------------------3-p2-|--------------------------|---3--------------3-p2-|
Eb|-----------------------|--5-----------------3---0-|-----------------------|


                       .      
                              
     '     '     '     '      
eb|--------------------------|
Bb|--------------------------|
Gb|--------------------------|
Db|--------------------------|
Ab|--------------------------|
Eb|--5-----------------3-0-0-|


                                                      
     Eb5     Eb5 Eb5 Eb5 Eb5 Eb5     Eb5 Eb5 Eb5 Eb5  
       '           '           '           '          
eb|--------------------------------------------------|
Bb|--------------------------------------------------|
Gb|----9-------9---9---9---9---9-------9---9---9---9-|
Db|----9-------9---9---9---9---9-------9---9---9---9-|
Ab|----7-------7---7---7---7---7-------7---7---7---7-|
Eb|--------------------------------------------------|


                                                     
     Eb5     Eb5 Eb5 Eb5 Eb5                         
       '           '           '           '         
eb|-------------------------------------------------|
Bb|-------------------------------------------------|
Gb|----9-------9---9---9---9---9---9----------------|
Db|----9-------9---9---9---9---9--------------------|
Ab|----7-------7---7---7---7---7--------------------|
Eb|-------------------------------------------------|



Riff (0:51 - 0:54)
                                                                                
                                                                                
       '           '           '           '            '     '     '     '     
eb|--------------------------------------------------|-------------------------|
Bb|--------------------------------------------------|-------------------------|
Gb|--------------------------------------------------|-------------------------|
Db|----7---7---7---7---7---7---7--p5-----------------|-------------------------|
Ab|----0-------------------------------7-5s3---3-----|-------------------------|
Eb|------------------------------------------------5-|--5-5-5-5-5-5-3----------|



Riff (0:54 - 0:58)
                                                         
                                                         
     '     '     '     '        '     '     '     '      
eb|--------------------------|--------------------------|
Bb|--------------------------|--------------------------|
Gb|--------------------------|--------------------------|
Db|------------------------5-|--5-5-5-5---5-7---------0-|
Ab|------------3-3-3-3-3-5---|----------7---------------|
Eb|--3-3-3-3-5---------------|--------------------------|



Riff (0:58 - 1:02)
                                                                                
                                                                                
      '        '        '        '           '        '        '        '       
eb|--------------------------------------|-------------------------------------|
Bb|--------------------------------------|-------------------------------------|
Gb|---5--5--5--5--5--5--5----------------|-------------------------------------|
Db|------------------------7-p5--7-p5----|---5---------------------------------|
Ab|------------------------------------7-|------7--5--3-h5--3------------------|
Eb|--------------------------------------|---------------------3---------------|



Riff (1:02 - 1:06)
                                                        
                                                        
     '     '     '     '        '     '     '     '     
eb|--------------------------|-------------------------|
Bb|--------------------------|-------------------------|
Gb|--------------------------|-------------------------|
Db|------------------------5-|--5-5-5-5---5-7----------|
Ab|------------3-3-3-3-3-5---|----------7--------------|
Eb|--3---3-3-5---------------|-------------------------|



Verse (1:06 - 1:14)
                                                                              
                                                                              
      '     '  '     '       '     '     '     '         '     '  '  '        
eb|-----------------------|--------------------------|-----------------------|
Bb|-----------------------|--------------------------|-----------------------|
Gb|-----------------------|--------------------------|-----------------------|
Db|-----------------------|--------------------------|---5-------------------|
Ab|------------------3-p2-|------------------------0-|---3--------------3-p2-|
Eb|-----------------------|--5-----------------3-----|-----------------------|


                                        
                                        
     '     '     '     '       ' ' ' '  
eb|-------------------------|----------|
Bb|-------------------------|----------|
Gb|-------------------------|----------|
Db|--------------------5----|----------|
Ab|--------------------3----|--5-------|
Eb|--5---------------0------|--3-----5-|



Verse (1:14 - 1:22)
                                                      
                                                      
      '     '  '  '          '     '     '     '      
eb|-----------------------|--------------------------|
Bb|-----------------------|--------------------------|
Gb|-----------------------|--------------------------|
Db|-----------------------|--------------------------|
Ab|------------------3-p2-|------------------------0-|
Eb|-----------------------|--5-----------------3-----|


                                                              .      
                                                                     
      '        '        '        '          '     '     '     '      
eb|--------------------------------------|--------------------------|
Bb|--------------------------------------|--------------------------|
Gb|--------------------------------------|--------------------------|
Db|---5----------------------------------|--------------------------|
Ab|---3-----------------------------3-p2-|--------------------------|
Eb|------------------------------5-------|--5-----------------3-0-0-|


                                                     
     Eb5     Eb5 Eb5 Eb5 Eb5 Eb5     Eb5 Eb5         
       '           '           '           '         
eb|-------------------------------------------------|
Bb|-------------------------------------------------|
Gb|----9-------9---9---9---9---9-------9---9--------|
Db|----9-------9---9---9---9---9-------9---9--------|
Ab|----7-------7---7---7---7---7-------7---7--------|
Eb|-------------------------------------------------|



Verse (1:22 - 1:30)
                                                                              
                                                                              
      '     '  '  '          '     '     '     '         '  '     '  '        
eb|-----------------------|--------------------------|-----------------------|
Bb|-----------------------|--------------------------|-----------------------|
Gb|-----------------------|--------------------------|-----------------------|
Db|-----------------------|--------------------------|---5-------------------|
Ab|------------------3-p2-|------------------------0-|---3--------------3-p2-|
Eb|-----------------------|--5-----------------3-----|---------------5-------|


                                        
                                        
     '     '     '     '       ' ' ' '  
eb|-------------------------|----------|
Bb|-------------------------|----------|
Gb|-------------------------|----------|
Db|--------------------5----|----------|
Ab|--------------------3----|--5-------|
Eb|--5---------------0------|--3-----5-|



Verse (1:30 - 1:41)
                                                      
                                                      
      '  '     '  '          '     '     '     '      
eb|-----------------------|--------------------------|
Bb|-----------------------|--------------------------|
Gb|-----------------------|--------------------------|
Db|-----------------------|--------------------------|
Ab|------------------3-p2-|------------------------0-|
Eb|-----------------------|--5-----------------3-----|


                                                            .      
                                                                   
      '        '        '        '          '     '     '   '      
eb|--------------------------------------|------------------------|
Bb|--------------------------------------|------------------------|
Gb|--------------------------------------|------------------------|
Db|---5----------------------------------|------------------------|
Ab|---3-----------------------------3-p2-|------------------------|
Eb|------------------------------5-------|--5---------------3-0-0-|


                                                      
     Eb5     Eb5 Eb5 Eb5 Eb5 Eb5     Eb5 Eb5 Eb5 Eb5  
       '           '           '           '          
eb|--------------------------------------------------|
Bb|--------------------------------------------------|
Gb|----9-------9---9---9---9---9-------9---9---9---9-|
Db|----9-------9---9---9---9---9-------9---9---9---9-|
Ab|----7-------7---7---7---7---7-------7---7---7---7-|
Eb|--------------------------------------------------|


                                                     
     Eb5     Eb5 Eb5 Eb5 Eb5                         
       '           '           '           '         
eb|-------------------------------------------------|
Bb|-------------------------------------------------|
Gb|----9-------9---9---9---9---9--------------------|
Db|----9-------9---9---9---9---9---9----------------|
Ab|----7-------7---7---7---7---7--------------------|
Eb|-------------------------------------------------|



Riff (1:41 - 1:45)
                                                                                
                                                                                
       '           '           '           '            '     '     '     '     
eb|--------------------------------------------------|-------------------------|
Bb|--------------------------------------------------|-------------------------|
Gb|--------------------------------------------------|-------------------------|
Db|----7---7---7---7---7---7---7--p5-----------------|-------------------------|
Ab|----0-------------------------------7-5s3---3-----|-------------------------|
Eb|------------------------------------------------5-|--5-5-5-5-5-5-3----------|



Riff (1:45 - 1:49)
                                                         
                                                         
     '     '     '     '        '     '     '     '      
eb|--------------------------|--------------------------|
Bb|--------------------------|--------------------------|
Gb|--------------------------|--------------------------|
Db|------------------------5-|--5-5-5-5---5-7---------0-|
Ab|------------3-3-3-3-3-5---|----------7---------------|
Eb|--3-3-3-3-5---------------|--------------------------|



Riff (1:49 - 1:53)
                                                                                
                                                                                
      '        '        '        '           '        '        '        '       
eb|--------------------------------------|-------------------------------------|
Bb|--------------------------------------|-------------------------------------|
Gb|---5--5--5--5--5--5--5----------------|-------------------------------------|
Db|------------------------7-p5--7-p5----|---5---------------------------------|
Ab|------------------------------------7-|------7--5--3-h5--3------------------|
Eb|--------------------------------------|---------------------3---------------|



Riff (1:53 - 1:57)
                                                        
                                                        
     '     '     '     '        '     '     '     '     
eb|--------------------------|-------------------------|
Bb|--------------------------|-------------------------|
Gb|--------------------------|-------------------------|
Db|------------------------5-|--5-5-5-5---5-7----------|
Ab|------------3-3-3-3-3-5---|----------7--------------|
Eb|--3---3-3-5---------------|-------------------------|



Bridge (1:57 - 2:05)
      .  .  .  .  .  .  .  .  .             .  .  .  .  .  .  .  .  .          
                                                                               
      '        '        '        '          '        '        '        '       
eb|-------------------------------------|-------------------------------------|
Bb|-------------------------------------|-------------------------------------|
Gb|-------------------------------------|-------------------------------------|
Db|------------------------------5-h7---|------------------------------5-h7---|
Ab|---0--0--0--0--0--0--0--0--0---------|---0--0--0--0--0--0--0--0--0--5------|
Eb|-------------------------------------|-------------------------------------|


      .  .  .  .  .  .  .  .  .             .  .  .  .  .  .  .  .  .          
                                                                               
      '        '        '        '          '        '        '        '       
eb|-------------------------------------|-------------------------------------|
Bb|-------------------------------------|-------------------------------------|
Gb|-------------------------------------|-------------------------------------|
Db|------------------------------5-h7---|------------------------------5-h7---|
Ab|---0--0--0--0--0--0--0--0--0---------|---0--0--0--0--0--0--0--0--0--5------|
Eb|-------------------------------------|-------------------------------------|



Bridge (2:05 - 2:15)
      .  .  .  .  .  .  .  .  .             .  .  .  .  .  .  .  .  .          
                                                                               
      '        '        '        '          '        '        '        '       
eb|-------------------------------------|-------------------------------------|
Bb|-------------------------------------|-------------------------------------|
Gb|-------------------------------------|-------------------------------------|
Db|------------------------------5-h7---|------------------------------5-h7---|
Ab|---0--0--0--0--0--0--0--0--0---------|---0--0--0--0--0--0--0--0--0--5------|
Eb|-------------------------------------|-------------------------------------|


      .  .  .  .  .  .  .  .  .          
                                         
      '        '        '        '       
eb|-------------------------------------|
Bb|-------------------------------------|
Gb|-------------------------------------|
Db|------------------------------5-h7---|
Ab|---0--0--0--0--0--0--0--0--0---------|
Eb|-------------------------------------|


        .    .    .    .    .    .    .    .    .                 
                                                  Ebm7            
        '              '              '         '            '''' 
eb|--------------------------------------------------7-----|-----|
Bb|--------------------------------------------------8-----|-----|
Gb|--------------------------------------------------7-----|-----|
Db|--------------------------------------------------9-----|-----|
Ab|-----0----0----0----0----0----0----0----0----0----7-----|-----|
Eb|--------------------------------------------------0-----|-----|



Noguitar (2:15 - 2:16)
        
        
    ''' 
eb|----|
Bb|----|
Gb|----|
Db|----|
Ab|----|
Eb|----|



Variation (2:16 - 2:20)
                                                         
                                                         
     ' '   '         '        '        '        '        
eb|--------------|--------------------------------------|
Bb|--------------|--------------------------------------|
Gb|------------4-|---5-p4-----4-----------------------4-|
Db|----------7---|---------7-----7-p5--7-p5--------7----|
Ab|--------------|---------------------------7----------|
Eb|--------------|--------------------------------------|


                                         
                                         
      '        '        '        '       
eb|-------------------------------------|
Bb|---------------------5---------------|
Gb|---5-p4-----4------------------------|
Db|---------7-----7-p5------------------|
Ab|-------------------------------------|
Eb|-------------------------------------|



Variation (2:20 - 2:24)
                                                           
                                                           
     '   ' '   '       '        '        '        '        
eb|----------------|--------------------------------------|
Bb|------------5-6-|---8-p6-p5--6-p5-----5----------------|
Gb|----------------|------------------7-----7-p5--7-p5-p4-|
Db|----------------|--------------------------------------|
Ab|----------------|--------------------------------------|
Eb|----------------|--------------------------------------|


                                         
                                         
      '        '        '        '       
eb|-------------------------------------|
Bb|-------------------------------------|
Gb|---5-p4-----4------------------------|
Db|---------7-----7-p5--7---------------|
Ab|-------------------------------------|
Eb|-------------------------------------|



Variation (2:24 - 2:28)
                                                           
                                                           
     '   ' '   '       '        '        '        '        
eb|----------------|--------------------------------------|
Bb|----------------|--------------------------------------|
Gb|--------------4-|---5-p4-----4-----------------------4-|
Db|------------7---|---------7-----7-p5--7-p5--------7----|
Ab|----------------|---------------------------7----------|
Eb|----------------|--------------------------------------|


                                         
                                         
      '        '        '        '       
eb|-------------------------------------|
Bb|---------------------5---------------|
Gb|---5-p4-----4------------------------|
Db|---------7-----7-p5------------------|
Ab|-------------------------------------|
Eb|-------------------------------------|



Variation (2:28 - 2:34)
                                                           
                                                           
     '   ' '   '       '        '        '        '        
eb|----------------|--------------------------------------|
Bb|------------5-6-|---8-p6-p5--6-p5-----5----------------|
Gb|----------------|------------------7-----7-p5--7-p5-p4-|
Db|----------------|--------------------------------------|
Ab|----------------|--------------------------------------|
Eb|----------------|--------------------------------------|


                                                                
                                                                
      '        '        '        '            '         '       
eb|-------------------------------------|----------------------|
Bb|-------------------------------------|----------------------|
Gb|---5-p4-----4------------------------|----------------------|
Db|---------7-----7-p5--7---------------|------------7s10---10-|
Ab|-------------------------------------|----------------------|
Eb|-------------------------------------|----------------------|



Solo (2:34 - 2:42)
                                                 
     G#5                                         
         '     '     '     '   ' ' ' '   ' ' ' ' 
eb|-------------------------|---------|---------|
Bb|-------------------------|---------|---------|
Gb|------9------------------|------7--|--7------|
Db|------7------------------|------5--|--5------|
Ab|------0------------------|---------|---------|
Eb|-------------------------|---------|---------|


                                                     
                             G#5                     
         '           '           '           '       
eb|-------------------------------------------------|
Bb|-------------------------------------------------|
Gb|------------------------------9------------------|
Db|------------------------5-----7------------------|
Ab|------------------------------0------------------|
Eb|-------------------------------------------------|



Solo (2:42 - 2:50)
                                                 
     G#5                                         
         '     '     '     '   ' ' ' '   ' ' ' ' 
eb|-------------------------|---------|---------|
Bb|-------------------------|---------|---------|
Gb|------9------------------|------7--|--7------|
Db|------7------------------|------5--|--5------|
Ab|------0------------------|---------|---------|
Eb|-------------------------|---------|---------|


                                                     
                             G#5                     
         '           '           '           '       
eb|-------------------------------------------------|
Bb|-------------------------------------------------|
Gb|------------------------7-----9------------------|
Db|------------------------------7------------------|
Ab|------------------------------0------------------|
Eb|-------------------------------------------------|



Solo (2:50 - 2:57)
                                                 
     G#5                                         
         '     '     '     '   ' ' ' '   ' ' ' ' 
eb|-------------------------|---------|---------|
Bb|-------------------------|---------|---------|
Gb|------9------------------|------7--|--7------|
Db|------7------------------|------5--|--5------|
Ab|------0------------------|---------|---------|
Eb|-------------------------|---------|---------|


                                                     
                             G#5                     
         '           '           '           '       
eb|-------------------------------------------------|
Bb|-------------------------------------------------|
Gb|------------------------7-----9------------------|
Db|------------------------------7------------------|
Ab|------------------------------0------------------|
Eb|-------------------------------------------------|



Solo (2:57 - 3:05)
                                                 
     G#5                                         
         '     '     '     '   ' ' ' '   ' ' ' ' 
eb|-------------------------|---------|---------|
Bb|-------------------------|---------|---------|
Gb|------9------------------|------7--|--7------|
Db|------7------------------|------5--|--5------|
Ab|------0------------------|---------|---------|
Eb|-------------------------|---------|---------|


                                                     
                             G#5                     
         '           '           '           '       
eb|-------------------------------------------------|
Bb|-------------------------------------------------|
Gb|------------------------------9------------------|
Db|------------------------5-----7------------------|
Ab|------------------------------0------------------|
Eb|-------------------------------------------------|



Solo (3:05 - 3:13)
                                                         
     G#5                                                 
         '     '     '     '   '   '   '   '     ' ' ' ' 
eb|-------------------------|-----------------|---------|
Bb|-------------------------|-----------------|---------|
Gb|------9------------------|--------9-7------|--7------|
Db|------7------------------|----------5------|--5------|
Ab|------0------------------|-----------------|---------|
Eb|-------------------------|-----------------|---------|


                                                     
                             G#5                     
         '           '           '           '       
eb|-------------------------------------------------|
Bb|-------------------------------------------------|
Gb|------------------------7-----9------------------|
Db|------------------------------7------------------|
Ab|------------------------------0------------------|
Eb|-------------------------------------------------|



Solo (3:13 - 3:21)
                                                         
     G#5                                                 
         '     '     '     '   '   '   '   '     ' ' ' ' 
eb|-------------------------|-----------------|---------|
Bb|-------------------------|-----------------|---------|
Gb|------9------------------|--------9-7------|--7------|
Db|------7------------------|----------5------|--5------|
Ab|------0------------------|-----------------|---------|
Eb|-------------------------|-----------------|---------|


                             
                 G#5         
         '     '     '     ' 
eb|-------------------------|
Bb|-------------------------|
Gb|------------------9------|
Db|------------------7------|
Ab|------------------0------|
Eb|-------------------------|



Solo (3:21 - 3:29)
                                                         
     G#5                                                 
         '     '     '     '   '   '   '   '     ' ' ' ' 
eb|-------------------------|-----------------|---------|
Bb|-------------------------|-----------------|---------|
Gb|------9------------------|----------7------|--7------|
Db|------7------------------|--------7-5------|--5------|
Ab|------0------------------|-----------------|---------|
Eb|-------------------------|-----------------|---------|


                                                     
                             G#5                     
         '           '           '           '       
eb|-------------------------------------------------|
Bb|-------------------------------------------------|
Gb|------------------------------9------------------|
Db|------------------------5-----7------------------|
Ab|------------------------------0------------------|
Eb|-------------------------------------------------|



Solo (3:29 - 3:37)
                                                 
     G#5                                         
         '     '     '     '   ' ' ' '   ' ' ' ' 
eb|-------------------------|---------|---------|
Bb|-------------------------|---------|---------|
Gb|------9------------------|------7--|--7------|
Db|------7------------------|------5--|--5------|
Ab|------0------------------|---------|---------|
Eb|-------------------------|---------|---------|


                                                     
                             G#5                     
         '           '           '           '       
eb|-------------------------------------------------|
Bb|-------------------------------------------------|
Gb|------------------------------9------------------|
Db|------------------------5-----7------------------|
Ab|------------------------------0------------------|
Eb|-------------------------------------------------|



Solo (3:37 - 3:45)
                                                                              
     G#5                                                                      
         '                 '                 '                 '              
eb|--------------------------------------------------------------------------|
Bb|--------------------------------------------------------------------------|
Gb|------9-----------------------------------------------9-------------------|
Db|------7-----------------------------------------------------------------7-|
Ab|------0-------------------------------------------------------------------|
Eb|--------------------------------------------------------------------------|


                                                               
                                                               
      '           '           '           '            ' ' ' ' 
eb|-------------------------------------------------|---------|
Bb|-------------------------------------------------|---------|
Gb|---7-h9--------------------7---------------------|--7------|
Db|---7-----------------------5---------------------|--5------|
Ab|---0---------------------------------------------|---------|
Eb|-------------------------------------------------|---------|


                                                                             
                                         G#5         G#5         G#5         
         '                 '                 '                 '             
eb|-------------------------------------------------------------------------|
Bb|-------------------------------------------------------------------------|
Gb|------------------------------------------9-----------9-----------9------|
Db|------------------------------5-----------7-----------7-----------7------|
Ab|------------------------------------------0-----------0-----------0------|
Eb|-------------------------------------------------------------------------|



Solo (3:45 - 3:52)
                                                                             
     G#5         G#5         G#5         G#5               G#5               
         '                 '                 '                 '             
eb|-------------------------------------------------------------------------|
Bb|-------------------------------------------------------------------------|
Gb|------9-----------9-----------9-----------9-----------------9------------|
Db|------7-----------7-----------7-----------7-----------------7------------|
Ab|------0-----------0-----------0-----------0-----------------0------------|
Eb|-------------------------------------------------------------------------|


                                                                             
     G#5                                                                     
         '                 '                 '                 '             
eb|-------------------------------------------------------------------------|
Bb|-------------------------------------------------------------------------|
Gb|------9-----------------------9-----------7-----------7-----------7------|
Db|------7-----------------------------------5-----------5-----------5------|
Ab|------0------------------------------------------------------------------|
Eb|-------------------------------------------------------------------------|


                              
                              
     '     '     '     '      
eb|--------------------------|
Bb|--------------------------|
Gb|--7---7---7---7---7-7---7-|
Db|--5---5---5---5---5-5---5-|
Ab|--------------------------|
Eb|--------------------------|


                                                                             
                                         G#5         G#5                     
         '                 '                 '                 '             
eb|-------------------------------------------------------------------------|
Bb|-------------------------------------------------------------------------|
Gb|------7-----------7-----7-----7-----------9-----------9------------------|
Db|------5-----------5-----5-----5-----------7-----------7-----------7------|
Ab|------------------------------------------0-----------0------------------|
Eb|-------------------------------------------------------------------------|



Riff (3:52 - 3:56)
                                                                                
                                                                                
       '           '           '           '            '     '     '     '     
eb|--------------------------------------------------|-------------------------|
Bb|--------------------------------------------------|-------------------------|
Gb|--------------------------------------------------|-------------------------|
Db|----7---7---7---7---7---7---7--p5-----------------|-------------------------|
Ab|------------------------------------7-5s3---3-----|-------------------------|
Eb|------------------------------------------------5-|--5-5-5-5-5-5-3----------|



Riff (3:56 - 4:00)
                                                        
                                                        
     '     '     '     '        '     '     '     '     
eb|--------------------------|-------------------------|
Bb|--------------------------|-------------------------|
Gb|--------------------------|-------------------------|
Db|------------------------5-|--5-5-5-5---5-7----------|
Ab|------------3-3-3-3-3-5---|----------7--------------|
Eb|--3-3-3-3-5---------------|-------------------------|



Riff (4:00 - 4:04)
                                                                                
                                                                                
      '        '        '        '           '        '        '        '       
eb|--------------------------------------|-------------------------------------|
Bb|--------------------------------------|-------------------------------------|
Gb|---5--5--5--5--5--5--5----------------|-------------------------------------|
Db|------------------------7-p5--7-p5----|-------------------------------------|
Ab|------------------------------------7-|---5-h7-p5--3-h5--3------------------|
Eb|--------------------------------------|---------------------3---------------|



Riff (4:04 - 4:11)
                              
                              
     '     '     '     '      
eb|--------------------------|
Bb|--------------------------|
Gb|--------------------------|
Db|------------------------5-|
Ab|------------3-3-3-3-3-5---|
Eb|--3-3-3-3-5---------------|


                                                                             
                                         G#5                                 
         '                 '                 '                 '             
eb|-------------------------------------------------------------------------|
Bb|-------------------------------------------------------------------------|
Gb|------------------------------------------9------------------------------|
Db|------5-----5-----5-----5-----------5-----7------------------------------|
Ab|------------------------------7-----------0------------------------------|
Eb|-------------------------------------------------------------------------|


               
               
    ''''  '''' 
eb|-----|-----|
Bb|-----|-----|
Gb|-----|-----|
Db|-----|-----|
Ab|-----|-----|
Eb|-----|-----|



Noguitar (4:11 - 4:16)
               
               
    ''''  '''' 
eb|-----|-----|
Bb|-----|-----|
Gb|-----|-----|
Db|-----|-----|
Ab|-----|-----|
Eb|-----|-----|


*********************
| h   Hummer-on
| p   Pull-off
| b   Bend
****************

            
            
Suggest correction
Creating personal tab
Creating personal tab
You can edit any tab online and save it as your Personal.

You can edit, replace or remove any tab part or add personal notes – all changes will be seen only by you.

Personal tabs can be accessed anytime from any device, even offline.
Learn more »
Give kudos to tab author, rate the tab!
1 2 3 4 5
comments
print report bad tab
guest
You may want to rate the tab now too:
select rating
Wanna post a correction for this tab? Suggest correction