Oops, an error
Loading. Please wait.

Its Only Money bass

1,280 views 3 this week
1 commentread comment
1 2 3 4 5
2 more votes to show rating
add to favorites
×
Save as Personal and add changes to this tab that will be seen only by you. Learn more ›
×
You can save this tab as Personal to edit and correct it or add notes. All changes will be seen only by you. Learn more »
launch autoscroll
font size
0
reset
guitar tuner
edit
Autoscroll
slow
fast
+/-
esc
set tempo
stop
Author
----------------------------------------------------------------------------
			     It's Only Money - Thin Lizzy
----------------------------------------------------------------------------

Tabbed By : Lorcan Pigott-Dix


Tuning: Normal

Intro: Reapet as many times necessary.

G|--------||----------------|----------------|----------------||
D|--------||7---5-----------|7---5-------5---|7---------------||
A|--------||--------7-------|--------7-------|----------------||
E|--------||----------------|----------------|----------------||

(second part also chorus)

G|--------||----------------|----------------|----------------|------------|
D|--------||7---5-----------|--------7---5---|----5---7-------|------------|
A|--------||--------7---5---|----------------|7---------------|------------|
E|--------||----------------|8---5-----------|----------------|------------|

Verse is just drumming.


Breakdown with solo.

Repeat as necessary.
G|--------||----------------|----------------|----------------||
D|--------||7---5-------7---|5-------7---5---|----5---7-------||
A|--------||--------7-------|----7-----------|7---------------||
E|--------||----------------|----------------|----------------||

Second part of breakdown

G|--------||----------------|----------------|----------------|
D|--------||--7p5-----------|----------------|--7p5-----------|
A|--------||7-------7-------|5---------------|7-------7-------|
E|--------||----------------|----5---3-------|----------------|

The song is based on these parts.


| /  slide up
| \  slide down
| h  hammer-on
| p  pull-off
| ~  vibrato
| +  harmonic
| x  Mute note
============================================================================

            
            
Suggest correction
Creating personal tab
Creating personal tab
You can edit any tab online and save it as your Personal.

You can edit, replace or remove any tab part or add personal notes – all changes will be seen only by you.

Personal tabs can be accessed anytime from any device, even offline.
Learn more »
Give kudos to tab author, rate the tab!
1 2 3 4 5
comments
print report bad tab
1 comment total.
0 reply
akarith 103 Mar 15, 2014 06:11 AM

thank you for posting this, seriously helped me get the song down; that said, there are a few things I'd like to suggest.

during the verses, when it isn't the 'long verse' (what you called the second part)
G|--------||------------5\--|----------------|----------------||
D|--------||7---5-----------|7---5-------5---|7---------------||
A|--------||--------7-------|--------7-------|----------------||
E|--------||----------------|----------------|----------------||

he also moves up the neck on occasion playing:

G|--------||----------7\----|----------------|----------------||
D|--------||9---7-----------|9---7-------7---|9---------------||
A|--------||--------9-------|--------9-------|----------------||
E|--------||----------------|----------------|----------------||

and lastly; the breakdown:
G|--------||----------------|----------------|----------------||
D|--------||5---3-------5---|3-------5---3---|---3-3--5-------||
A|--------||--------5-------|---5------------|5---------------||
E|--------||----------------|----------------|----------------||

G|--------||----------------|----------------|----------------|
D|--------||---5-0----------|5---------------|5-0-------------|
A|--------||7-------7-------|--5-------------|-----7----------|
E|--------||----------------|-----5--3-0-----|----------------|

hope this helps, thank you again for posting!!

guest
You may want to rate the tab now too:
select rating
Wanna post a correction for this tab? Suggest correction