Oops, an error
Loading. Please wait.

Johnny bass

version 1
version 1

Whole song

Interactive

2,210 views 3 this week
1 commentread comment
1 2 3 4 5
1 last vote to show rating
add to favorites
×
Save as Personal and add changes to this tab that will be seen only by you. Learn more ›
×
You can save this tab as Personal to edit and correct it or add notes. All changes will be seen only by you. Learn more »
launch autoscroll
font size
0
reset
guitar tuner
backing track
0:00
0:00
edit
Autoscroll
slow
fast
+/-
esc
set tempo
stop
Artist: Thin Lizzy
Album: Johnny The Fox
Song: Johnny

Intro:
G:------------------------------------------------------------|
D:------------------------------------------------------------|
A:------1-212-24-646-6-77-66----------------------------------|
E:-424-4------------------------------------------------------|

G:--------------------------------------------------------------|
D:--------------------------------------------------------------|
A:------1-212-24-646-6-76421------------------------------------|
E:-424-4---------------------42---------------------------------|

Verse:
G:----------------------------------------|
D:----------------------------------------| not
A:--------2-22-22---4-44-44---77--66------| sure
E:--4-44-44-------------------------------| about

Chorus:                                    this
G:---------------------------------|
D:---------------------------------|
A:--------2-----6------------------|
E:---4-----------------------------|

PLEASE COMMENT!
by Nikita

            
            
Suggest correction
Creating personal tab
Creating personal tab
You can edit any tab online and save it as your Personal.

You can edit, replace or remove any tab part or add personal notes – all changes will be seen only by you.

Personal tabs can be accessed anytime from any device, even offline.
Learn more »
Give kudos to tab author, rate the tab!
1 2 3 4 5
comments
print report bad tab
1 comment total.
0 reply
zakarath 10 May 19, 2015 12:22 PM

pretty good, saved me working it out, I add a 6 before the 77 66 A:------1-212-24-646-66-77-66-

and the 76421-- run I plays as a:---764 e:764, then the same, try it and see what you think!!!

guest
Wanna post a correction for this tab? Suggest correction