Oops, an error
Loading. Please wait.

Little Girl In Bloom bass

1,861 views 6 this week
2 commentsread comments
1 2 3 4 5
1 last vote to show rating
add to favorites
×
Save as Personal and add changes to this tab that will be seen only by you. Learn more ›
×
You can save this tab as Personal to edit and correct it or add notes. All changes will be seen only by you. Learn more »
launch autoscroll
font size
0
reset
guitar tuner
edit
Autoscroll
slow
fast
+/-
esc
set tempo
stop
My version of Little Girl in Bloom. Main reason I decided to tab it was because
I looked everyone's version of the chorus didn't sound that great to me, I don't know 
to
the ending solo sorry but I'm quite sure that this is closest way to play the chorus and 
ending of it. Very easy song whole thing is on the D string

Intro:
G)-------------------|
D)-------5-5----2-2--|       (2x)
A)-------------------|
E)-------------------|
Verse:
G)---------------------------------------------------------|
D)----5-5----2-2----5-5----2-2----0-0----2-2----0-0----2-2-|    (as many x's
A)---------------------------------------------------------|     needed)
E)---------------------------------------------------------|
Pre-chorus:
G)-------------------|
D)----5-5----5-5-----|
A)-------------------|
E)-------------------|
Chorus:
G)--------------------------------|
D)----7-7----7-7-------2-2----2-2-|      (1x)
A)--------------------------------|
E)--------------------------------|
End of Chorus:
G)-----------------------------------0-0----0-0-|
D)----7-7----7-7-------2-2----2-0---------------|
A)----------------------------------------------|
E)----------------------------------------------|

            
            
Suggest correction
Creating personal tab
Creating personal tab
You can edit any tab online and save it as your Personal.

You can edit, replace or remove any tab part or add personal notes – all changes will be seen only by you.

Personal tabs can be accessed anytime from any device, even offline.
Learn more »
Give kudos to tab author, rate the tab!
1 2 3 4 5
comments
print report bad tab
2 comments total.
+1 reply
JadaT 10 Dec 26, 2010 07:40 AM

I figured out the solo part for you. It's



D 5
A 0h2 5 77 77 9 7 5 2
E 3 3 3

(then)

D 0h4 7 9 2 22 4h5 2 0
A 5 5 2
E

+1 reply
JadaT 10 Dec 26, 2010 07:40 AM

Sorry it looks so messed up in the comments :(

guest
You may want to rate the tab now too:
select rating
Wanna post a correction for this tab? Suggest correction