Oops, an error
Loading. Please wait.

The Boys Are Back In Town bass

version 2
version 2
19,252 views 12 this week
1 commentread comment
1 2 3 4 5
x 7
add to favorites
×
Save as Personal and add changes to this tab that will be seen only by you. Learn more ›
×
You can save this tab as Personal to edit and correct it or add notes. All changes will be seen only by you. Learn more »
launch autoscroll
font size
0
reset
guitar tuner
backing track
0:00
0:00
edit
Autoscroll
slow
fast
+/-
esc
set tempo
stop
Author
Difficulty
The Boys Are Back In Town By Thin Lizzy
With a swing (180bpm)
Tabbed by Jayson

Intro
G|----------------------------------------------|  x4
D|---------------331---13-----------------------| 
A|-------------------3----11111111-44444444-----| 
E|-44444444444----------------------------------|

Verse (0:25)
G|----------------------------------------------------------------| x2 
D|----------------------------------------------------------------| 
A|---------3333-33-4444-44---------3333-33---------4444-44-6666-66| 
E|-4444-44-----------------1111-11---------1111-11----------------|

Chorus (0:49)
G|-----------------------------------------------| x3
D|-----------------------------------------------| 
A|------------------11111111-44444444------------|
E|-4444444444444444------------------------------|

End of Chorus (1:07)
G|------------------------------------------| x2
D|------------------------------------------| 
A|--------------11111-4-4-4-4-3-1-----------| 
E|-44444-44444------------------------------|

Verse (1:19)
G|----------------------------------------------------------------| x2 
D|----------------------------------------------------------------| 
A|---------3333-33-4444-44---------3333-33---------4444-44-6666-66| 
E|-4444-44-----------------1111-11---------1111-11----------------|

Chorus (1:43)
G|-----------------------------------------------| x3 
D|-----------------------------------------------| 
A|------------------11111111-44444444------------|
E|-4444444444444444------------------------------|

End of Chorus (2:00)
G|-------------------------------------------------| 
D|-------------------------------------------------| x2
A|--------------11111-4-4-4-4-3-1------------------| 
E|-44444-44444-------------------------------------|

After-Chorus 1 (2:12)
G|---------------------------------------------------------------| 
D|-44444444------------------------------3-1-1-1-1-3-(let ring)--| 
A|----------44444444----3--3-------1-3-4-------------------------| 
E|---------------------------1--1--------------------------------|

After-Chorus 2 (2:24)
G|---------------------------------------------------------------| 
D|-44444444------------------------------3-1-1-1-1---------------| 
A|----------44444444----3--3-------1-3-4-------------------------| 
E|---------------------------1--1-------------------1-(let ring)-|

Verse (2:36)
G|----------------------------------------------------------------| x2 
D|----------------------------------------------------------------| 
A|---------3333-33-4444-44---------3333-33---------4444-44-6666-66| 
E|-4444-44-----------------1111-11---------1111-11----------------|

Chorus 2 (3:00)
G|-----------------------------------------------| x2
D|-----------------------------------------------| 
A|------------------11111111-44444444------------|
E|-4444444444444444------------------------------|

End of Last Chorus (3:12)
G|----------|----------|---------|----------| x2
D|----------|----------|---------|----------| 
A|----------|----------|---------|--4-------| 
E|--4-------|--4-------|--6------|----------|

Solo (3:24)
G|---------|---------|---------|---------|---------|---------|------|----|x2
D|---------|---------|---------|---------|---------|---------|------|------|
A|---3-4-6-|---3-4-6-|---1-2-4-|---3-1---|---1-2-4-|---3-1---|------|------|
E|--4------|-4-------|-2-------|-1-----4-|-2-------|-1-----4-|-4----|-6----|

Solo pt.2 (3:47)
G|-------------------------------------------------| Play this until end.
D|-------------------------------------------------| 
A|--------------11111-4-4-4-4-3-1------------------| 
E|-44444-44444-------------------------------------|

            
            
Suggest correction
Creating personal tab
Creating personal tab
You can edit any tab online and save it as your Personal.

You can edit, replace or remove any tab part or add personal notes – all changes will be seen only by you.

Personal tabs can be accessed anytime from any device, even offline.
Learn more »
comments
print report bad tab
1 comment total.
0 reply
Eggmond 1,218 Aug 16, 2009 03:18 AM

this should be played in Eb tuning

guest
You may want to rate the tab now too:
select rating
Wanna post a correction for this tab? Suggest correction