Oops, an error
Loading. Please wait.
We have Chord Pro version of Jumper.
It's the closest thing you can get to the original song and it has interactive parts. Check out the tab »
×
11,152 views 24 this week
no commentswrite comment
1 2 3 4 5
x 5
add to favorites
×
Save as Personal and add changes to this tab that will be seen only by you. Learn more ›
×
You can save this tab as Personal to edit and correct it or add notes. All changes will be seen only by you. Learn more »
launch autoscroll
font size
0
reset
guitar tuner
edit
Autoscroll
slow
fast
+/-
esc
set tempo
stop
Author
Difficulty
#----------------------------------PLEASE NOTE---------------------------------#
#This file is the author's own work and represents their interpretation of the #
#song. You may only use this file for private study, scholarship, or research. #
#------------------------------------------------------------------------------#

Jumper Bassline by Third Eye Blind

Tabbed by: Matthew Walusek
E-mail: mwalusek@hotmail.com

Standard Tuning: E A D G

    Bass

Intro
||---------------------------------------------------------||
||---------------------------5-5-5-5-----------------------|| X2
||---------------3-3-3---------------5-5-5-5---------------||
||--1----1-----------------------------------3-3-3-3-------||


Verse 1
|----------------------------------------|
|----------------------------------------|
|-0---------3-------------------0--------|
|---------------------3------------------|

|----------------------------------------------|
|-----------5----------------------------------|
|-3-------------------0---------5---------3----|
|----------------------------------------------|


Chorus
||---------------------------------------------------||
||---------------------------------------------------|| X5
||-------------------/3----3-3-----------------------||
||--1----1------1--------3------3--3-----3-3-3-3-----||

Verse 2
|-------------------------------------------|
|-------------------------------------------|
|-0----------3---------------------0--------|
|-----------------------3-------------------|

|-------------------------------------------------|
|-------------------------------------------------|
|-3---------------------0----------5---------3----|
|------------3------------------------------------|


Chorus
||---------------------------------------------------||
||---------------------------------------------------|| X6
||-------------------/3----3-3-----------------------||
||--1----1------1--------3------3--3-----3-3-3-3-----||


Pre-Solo
||----------------------------------------------------||
||----------3-3------------5-5-5-5--------------------|| X7
||----------------------3----------5-5--5-------------||
||--1-1-1-1-----1-1-1---------------------3-3-3-3-----||

|---------------------------------------------------|
|---------3-3------------5-5-5-5-5-5-5-5-5-5-5-5----|
|---------------------3-----------------------------|
|-1-1-1-1-----1-1-1---------------------------------|


Solo
||---------------------------------------------||
||---------------------------------------------|| X4
||-----------------/3---3-3--------------------||
||--1----1------1-----3-----3-3---3-3-3-3------||


Bridge
|--------------------------|
|--------------------------|
|-5-5-5-5-5-5--------------|
|-------------3-3-3-3-3----|


Chorus
||---------------------------------------------||
||---------------------------------------------|| X6
||-----------------/3---3-3--------------------||
||--1----1------1-----3-----3-3---3-3-3-3------||


Outro
||------------------------------------------------------||
||-------3-------------------5-5-5-5--------------------|| X3
||---------------3-3-3---------------5-5-5-5------------||
||--1----------------------------------------3-3-3-3----||

My First Tab :)

            
            
Suggest correction
Creating personal tab
Creating personal tab
You can edit any tab online and save it as your Personal.

You can edit, replace or remove any tab part or add personal notes – all changes will be seen only by you.

Personal tabs can be accessed anytime from any device, even offline.
Learn more »
comments
print report bad tab
guest
You may want to rate the tab now too:
select rating
Wanna post a correction for this tab? Suggest correction