Oops, an error
Loading. Please wait.

Non-Dairy Creamer tab

6,724 views 1 this week
4 commentsread comments
1 2 3 4 5
x 3
add to favorites
×
Save as Personal and add changes to this tab that will be seen only by you. Learn more ›
×
You can save this tab as Personal to edit and correct it or add notes. All changes will be seen only by you. Learn more »
launch autoscroll
font size
0
reset
how to read this tab
guitar tuner
edit
Autoscroll
slow
fast
+/-
esc
set tempo
stop
--------------------------------------------------------------------------
                             NON-DAIRY CEAMER - Third Eye Blind
--------------------------------------------------------------------------
Tabbed by: Jon Rocha
Email: jonrocha18@gmail.com

Tuning: Standard

Intro, Gtr. 1 .... x5
e|--------------------------------|--------------------------------------|
B|----9------9------9--------10p9-|----9-------9-------9--------9h10p9---|
G|--9--9---9--9---9---9----9-----9|--9--9----9--9----9---9----9-------9--|
D|9-------------11-------9--------|9---------------11-------9------------|
A|-------12-----------------------|--------12----------------------------|
E|--------------------------------|--------------------------------------|

Intro, Gtr. 2
e|-------------------------------|
B|----9------7------7------9h10--|
G|--9--9---9--9---9--9---9-----9-|
D|-------------------------------|
A|7------0--------------7--------|
E|---------------9---------------|....comes in after 1st gtr has gone through the line once

  Main Line, Gtr. 1
e|-------------------------0---0------------------------------------------|
B|----7h9p7--------7------------------7h9p7-------------------------------|
G|--9------9-----9---9-------6------9-------7-----------------------------|
D|------------------------------------------------------------------------|
A|7-------------------------------0---------------------------------------|
E|-------------9--------7-------------------------------------------------|

watch out for this slight variation in the way Tony plays it.
e|-------------------------0---0------9p7---------------------------------|
B|----7h9p7--------7----------------------9p7-----------------------------|
G|--9------9-----9---9-------6------9-------------------------------------|
D|------------------------------------------------------------------------|
A|7-------------------------------0---------------------------------------|
E|-------------9--------7-------------------------------------------------|

1st Chorus x2, Gtr. 1, listen for strumming pattern
                                                                   *** Listen to this part
                                                                       to get the timing right***
e|-9----9----9-9----x-x------------------------------------------------|
B|-10---10--10-10---x-x---9---9---9--x---***9-9-9-9h10-10-10p9--9***---|
G|-11---11--11-11---x-x---9---9---9--x----- 9-9-9-9- 9--9--9-9--9------|
D|-x-----x---x--x----x-x--11--11--11--x---- 9-9-9-9- 9--9--9-9--9------|
A|-9-----9---9--9----x-x-----------------------------------------------|
E|---------------------------------------------------------------------|

e|-9---9---x-x--------|
B|-10--10--x-x--10----|
G|-11--11--x-x---9----|
D|-x----x--x-x---7----|
A|-9----9--x-x--------|
E|--------------------|


Gtr. 1, Bridge rhythm section, listen for strumming patterns
e|---------------------------------------------------------------------|
B|---------------------------------------------------------------------|
G|------------------------------9-9-9-9--------------------------------|
D|-7-7-7---9-9-9---11-11--11----9-9-9-9--------------------------------|
A|-7-7-7---9-9-9---11-11--11----7-7-0-7--------------------------------|
E|-5-5-5---7-7-7----9--9---9----0-0-0-0--------------------------------|

e|--------------------------------------------------------------------|
B|--------------------------------------------------------------------|
G|--------------------------------------------------------------------|
D|-7-7-7---9-9-9---11-11--11----9-9--9--------------------------------|
A|-7-7-7---9-9-9---11-11--11----9-9--9--------------------------------|
E|-5-5-5---7-7-7----9--9---9----7-7--7--------------------------------|


more flowing
e|------------------------------------------------------------------------|
B|------------------------------------------------------------------------|
G|------------------------9--9--9--9--9------9--9---9---------------------|
D|-7-7-7-7-7-7--9-9--9--- 9--9--9--9--9------9--9---9---------------------|
A|-7-7-7-7-7-7--9-9--9----7--7--7--7--7------7--7---7---------------------|
E|-5-5-5-5-5-5--7-7--7----0--0--0--0--0------0--0---0---------------------|

e|------------------------------------------------------------------------|
B|------------------------------------------------------------------------|
G|------------------------------------------------------------------------|
D|-9-9-9-9-9-9--9-9--9----11--11--11--11--11--9--9--9---------------------|
A|-9-9-9-9-9-9--9-9--9----11--11--11--11--11--9--9--9---------------------|
E|-7-7-7-7-7-7--7-7--7-----9---9---9---9---9--7--7--7---------------------|



Chorus x2, again, listen for strumming patterns
e|-----------------------------------------------------------------------------|
B|-----------------------------------------------------------------------------|
G|--------------6--6--6------9--9--9--9--9-------------------------------------|
D|-4-4-4-4-4----6--6--6------9--9--9--9--9-------------------------------------|
A|-4-4-4-4-4----4--4--4------7--7--7--7--7-------------------------------------|
E|-2-2-2-2-2----4--4--4------0--0--0--0--0-------------------------------------|

e|-----------------------------------------------------------------------------|
B|-----------------------------------------------------------------------------|
G|---------------------------9--9--9--9--9-------------------------------------|
D|-4-4-4-4-4----7--7--7------9--9--9--9--9-------------------------------------|
A|-4-4-4-4-4----7--7--7------7--7--7--7--7-------------------------------------|
E|-2-2-2-2-2----5--5--5------0--0--0--0--0-------------------------------------|


Outro, Gtr. 1 with some reverb and delay (*watch for raking*)
e|--------(12)-(12)------------------------------------*16----17-16---14---------|
B|---10-10-9--- 9------9b10r9b10b9b10r9---7--7/9---------------------------------|
G|-------------------------------------------------------------------------------|
D|-------------------------------------------------------------------------------|
A|-------------------------------------------------------------------------------|
E|-------------------------------------------------------------------------------|

e|--14/16--12~/0-----9h12-------------------------*16---14-12-11-12-(12)---------|
B|------------------------12---9b10r9b10b9b10r9-------------------------12/14~---|
G|-------------------------------------------------------------------------------|
D|-------------------------------------------------------------------------------|
A|-------------------------------------------------------------------------------|
E|-------------------------------------------------------------------------------|

e|-9h12------------------------------------*16---19---21--16/19---------------|
B|------9~-----10-9b10r9b10b9b10r9--------------------------------------------|
G|----------------------------------------------------------------------------|
D|----------------------------------------------------------------------------|
A|----------------------------------------------------------------------------|
E|----------------------------------------------------------------------------|

e|-16/17p12h17/16p12h14~--------(0)-(0)----------------------------(12)(12)--------|
B|---------------------------12-10-10/12/0----9-10-9-10-10/12~--- 10--9------------|
G|---------------------------------------------------------------------------------|
D|---------------------------------------------------------------------------------|
A|---------------------------------------------------------------------------------|
E|---------------------------------------------------------------------------------|

e|-17-16--12---16p12------12-(12)-(12)-----17---16-14-12---14p12----12------|
B|-------------------12 -------10--9-----------------------------12---12--10|
G|--------------------------------------------------------------------------|
D|--------------------------------------------------------------------------|
A|--------------------------------------------------------------------------|
E|--------------------------------------------------------------------------|

e|-(12)------------------------------------------------------------------------|
B|-12~-------------------------------------------------------------------------|
G|-----------------------------------------------------------------------------|
D|-----------------------------------------------------------------------------|
A|-----------------------------------------------------------------------------|
E|-----------------------------------------------------------------------------|

| /  slide up
| \  slide down
| h  hammer-on
| p  pull-off
| ~  vibrato
| +  harmonic
| x  Mute note
===============================================================================

            
            
Suggest correction
Creating personal tab
Creating personal tab
You can edit any tab online and save it as your Personal.

You can edit, replace or remove any tab part or add personal notes – all changes will be seen only by you.

Personal tabs can be accessed anytime from any device, even offline.
Learn more »
Give kudos to tab author, rate the tab!
1 2 3 4 5
comments
print report bad tab
4 comments total. Showing first comments.
0 reply
atmydrive-in 31 Jan 14, 2009 11:13 AM

Nice tab, this is a good bit easier to play than the other version. Although not entirely perfect. I shall rate 4*.

0 reply
MrOtter 20 Jan 30, 2009 08:19 AM

I'm gonna have to disagree with atmydrive-in, i think this is a good bit harder to play than the other version, but i do appreciate the outro stuff

0 reply
ardyduh1manpart 54 Mar 26, 2010 10:25 AM, edited on November 16 2016, 05:47 am

this is the correct version. the intro in the other one is in the wrong key. 5 stars

guest
You may want to rate the tab now too:
select rating
Wanna post a correction for this tab? Suggest correction