Oops, an error
Loading. Please wait.

Truth And Reconciliation bass

249 views 1 this week
no commentswrite comment
1 2 3 4 5
2 more votes to show rating
add to favorites
×
Save as Personal and add changes to this tab that will be seen only by you. Learn more ›
×
You can save this tab as Personal to edit and correct it or add notes. All changes will be seen only by you. Learn more »
launch autoscroll
font size
0
reset
guitar tuner
edit
Autoscroll
slow
fast
+/-
esc
set tempo
stop
Song: Truth and Reconciliation
Artist: This Providence
Tabber: DBC

The tuning for this song is a half step down.

Intro
Gb|-------------|
Db|-------------|
Ab|-------------|
Eb|---7~7~7~----|

Chorus
Gb|---------------------------------------|
Db|---------------------------------------|
Ab|---4444--------------------------------|
Eb|-----------5555----7777-----77~--77~---|x4

Post Chorus
Gb|-----------|
Db|-----------|
Ab|-----------|
Eb|---12~-----|

Guitar Only Section

Verse
Gb|---------------------------------------|
Db|---------------------------------------|
Ab|-----------44444444--------------------|
Eb|---77777777--------5555555555555555----|x4

Post Verse
Gb|----------|
Db|----------|
Ab|----------|
Eb|----4~----|

Bridge
Gb|-----------------------------------------------------------------|
Db|-----------------------------------------------------------------|
Ab|---44--44--77--77------------------------------------------------|
Eb|-------------------77--77--1212--1212/44-44-44-44--55--55-77-77--|

Gb|------------------------------------------------------------------------|
Db|------------------------------------------------------------------------|
Ab|---44--44--77--77-------------------------------------------------------|
Eb|------------------77-77--1212--1212--1515--1515--1515--1515--1717--1717-|

Gb|---------------|
Db|---------------|
Ab|---------------|
Eb|--1919191919/--|

Verse x4

Chorus x4

Bridge 2
Gb|------------------------------------------------------------------------|
Db|------------------------------------------------------------------------|
Ab|--------------------------------------44--44--77-77---------------------|
Eb|--5555555555555555-777777777777777777---------------77--77--1212--1212/-|

Gb|------------------------------------------------------------------------|
Db|------------------------------------------------------------------------|
Ab|------------------------------------------------------------------------|
Eb|-55555555555555555-77777777777777777-55--55--55--55--77--77--99--99-12~-|

Gb|-----------------------------------------------------|
Db|-----------------------------------------------------|
Ab|--44~4~4~--------------------------------------------|
Eb|----------55~5~5~---77~7~7~7x------55~5~5~--77~7~7~--|

Final Chorus
Gb|-------------------------------|
Db|-------------------------------|
Ab|--444444444--------------------|
Eb|------------55555555-77777777--|x3

Gb|------------------------------|
Db|----------------------9-------|
Ab|--4444---------------9-7~~~~--|
Eb|--------5555--7777--7---------|

That's It
If you have any corrections e-mail them to me.
saintbarnabus@hotmail.com

            
            
Suggest correction
Creating personal tab
Creating personal tab
You can edit any tab online and save it as your Personal.

You can edit, replace or remove any tab part or add personal notes – all changes will be seen only by you.

Personal tabs can be accessed anytime from any device, even offline.
Learn more »
Give kudos to tab author, rate the tab!
1 2 3 4 5
comments
print report bad tab
guest
You may want to rate the tab now too:
select rating
Wanna post a correction for this tab? Suggest correction