Oops, an error
Loading. Please wait.

Analyse tab

version 3
version 3

Whole song

Interactive

157 views 6 this week
no commentswrite comment
1 2 3 4 5
3 more votes to show rating
add to favorites
×
Save as Personal and add changes to this tab that will be seen only by you. Learn more ›
×
You can save this tab as Personal to edit and correct it or add notes. All changes will be seen only by you. Learn more »
launch autoscroll
font size
0
reset
how to read this tab
guitar tuner
edit
Autoscroll
slow
fast
+/-
esc
set tempo
stop
Author
Difficulty
intermediate
"Analyse" by Thom Yorke
Transcribed by Richard Pugh

Main Loop: 
(I use a picking pattern of tx21t21x)

  C                                                                                                  
  1 e + a 2 e + a 3 e + a 4 e + a |1 e + a 2 e + a 3 e + a 4 e + a |1 e + a 2 e + a 3 e + a 4 e + a |
e|--------------------------------|--------------------------------|--------------------------------|
b|--------1-----------1-----------|--------1-----------1-----------|--------1-----------1-----------|
g|------------0-----------0-------|--------------------------------|--------------------------------|
D|--------------------------------|------------3-----------3-------|------------2-----------2-------|
A|3---------------3---------------|3---------------3---------------|3---------------3---------------|
E|--------------------------------|--------------------------------|--------------------------------|
                                x2                               x2                               x2 

 Bbm
 1 e + a 2 e + a 3 e + a 4 e + a 
|--------------------------------|
|--------2-----------2-----------|
|--------------------------------|
|------------3-----------3-------|
|1---------------1---------------|
|--------------------------------|
                                x2

                                
  A#                               G (Play 6 on g towards end)      Fm                               
  1 e + a 2 e + a 3 e + a 4 e + a |1 e + a 2 e + a 3 e + a 4 e + a |1 e + a 2 e + a 3 e + a 4 e + a |
e|--------------------------------|--------------------------------|--------------------------------|
b|--------------------------------|--------------------------------|--------1-----------1-----------|
g|--------5-----------5-----------|--------5-----------5-----------|------------1-----------1-------|
D|------------3-----------3-------|------------5-----------5-------|--------------------------------|
A|--------------------------------|--------------------------------|--------------------------------|
E|4---------------4---------------|3---------------3---------------|1---------------1---------------|
                                x2                               x2                               x4    

A self-fulfilling prophecy of endless possibility
In rolling reams across a screen
In algebra, in algebra

The fences that you cannot climb
The sentences that do not rhyme
In all that you can ever change
I'm the one you're looking for

It gets you down
It gets you down
There's no spark
You've no light in the dark

It gets you down
It gets you down
You travelled far
What have you found

There's no time
There's no time
To analyse
To think things through
To make sense

  E (Play on "sense" after 4 bars of Fm as normal)                  Fm                              
  1 e + a 2 e + a 3 e + a 4 e + a |1 e + a 2 e + a 3 e + a 4 e + a |1 e + a 2 e + a 3 e + a 4 e + a |
e|--------------------------------|--------------------------------|--------------------------------|
b|--------2-----------2-----------|--------1-----------1-----------|--------1-----------1-----------|
g|------------1-----------1-------|------------1-----------1-------|------------1-----------1-------|
D|--------------------------------|--------------------------------|--------------------------------|
A|--------------------------------|--------------------------------|--------------------------------|
E|0---------------0---------------|0---------------0---------------|1---------------1---------------|
                                x2                               x2                               x4   
(Back to main loop)                     
Like candles in the city, they never looked so pretty
By power cuts and blackouts
Sleeping like babies

It gets you down
It gets you down
You're just playing a part
You're just playing a part

You're playing a part
Playing a part
And there's no time
There's no time

To analyse
Analyse
Analyse
                                
Coda:
(Here I use a picking pattern of tx21t321)
  Cm                               Bb                               Fm                               
  1 e + a 2 e + a 3 e + a 4 e + a |1 e + a 2 e + a 3 e + a 4 e + a |1 e + a 2 e + a 3 e + a 4 e + a |
e|--------------------3-----------|--------------------1-----------|--------------------1-----------|
b|--------4---------------4-------|--------3---------------3-------|--------1---------------1-------|
g|------------5---------------5---|------------3---------------3---|------------1---------------1---|
D|--------------------------------|--------------------------------|--------------------------------|
A|3---------------3---------------|1---------------1---------------|--------------------------------|
E|--------------------------------|--------------------------------|1---------------1---------------|
                                x4                               x4                               x4  

Repeat until ending as below:

  Cm                                                      
  1 e + a 2 e + a 3 e + a 4 e + a |1 e + a 2 e + a 3 e + a 4 e + a 
e|--------------------3-----------|--------4-----------4-----------|
b|--------4---------------4-------|------------------------4-------|
g|------------5---------------5---|------------5---------------5---|
D|--------------------------------|--------------------------------|
A|3---------------3---------------|3---------------3---------------|
E|--------------------------------|--------------------------------|
                                x4                               x4

            
            
Suggest correction
Creating personal tab
Creating personal tab
You can edit any tab online and save it as your Personal.

You can edit, replace or remove any tab part or add personal notes – all changes will be seen only by you.

Personal tabs can be accessed anytime from any device, even offline.
Learn more »
Give kudos to tab author, rate the tab!
1 2 3 4 5
comments
print report bad tab
guest
You may want to rate the tab now too:
select rating
Wanna post a correction for this tab? Suggest correction