Oops, an error
Loading. Please wait.

Scared chords

version 2
version 2

Whole song

Interactive

169 views 1 this week
no commentswrite comment
1 2 3 4 5
3 more votes to show rating
add to favorites
×
Save as Personal and add changes to this tab that will be seen only by you. Learn more ›
×
You can save this tab as Personal to edit and correct it or add notes. All changes will be seen only by you. Learn more »
launch autoscroll
font size
0
reset
transpose
0
reset
display chords
guitar tuner
edit
Autoscroll
slow
fast
+/-
esc
set tempo
stop
Author
Difficulty
Strumming
There is no strumming pattern for this song yet. and get +5 IQ
Thomas Giles - Scared

This is the capo version of the song I kinda just taught myself. I think he plays it the un-capoed
version but I kinda like playing this very better because it's a lot more simpler.

https://www.youtube.com/watch?v=PuYGOXo0Px4
standard tuning
Chords are relative to capo on the 3rd fret

C  - x32010
Dm - xx0231
F  - 133211
Am - x02210

Intro
                                                      
e|--------0~------------3p0-----------|--------0------------------------0-|
B||-1~-------1---3p1--------1---------|--1-------1---0h1----------------.||
G||---0---0~---0------0-------0---0---|----2---2---2-----2------0h2-2----||(Repeat X's 1)
D||-----2-----------------------2---2~|--3---3-------------3-3--------3-.||
A||-3~--------------------------------|----------------------------------||
E|------------------------------------|-----------------------------------|


Verse1

C
I saw death today,

Waiting games slowly fades,
F
A final word,

Such a vicious word
C
Where do we go from here?

Struggle to find sense of this,
F
I'm here for you,

I'm here for all of you


Chorus 1

Am
I'm scared,
Dm
You're frightened,
F
Sit down, please
Am
I'm scared,
Dm            F
You're frighteneddddddddd


Verse 2

C
To see the saddened face,

Hardest thing ill ever face,
F
Collapse inside,

Caress outside,
C
Your painful moan is deafening,

Echoes in my memory,
F
The years till grow,

We all must grow


Chorus 2

Am
I'm scared
Dm                 
You're frightened
F                  
Sit down... please
Am
I'm scared
Dm
You're frightened
F
Sit down


Bridge

Am
I'm scared
Dm
You're frightened
F
Sit down... please
Am
I'm scared
Dm
You're frightened
F
Sit down please


Outro

    Sit down please                    
e|--------0~------------3p0-----------|--------0------------------------0-|
B||-1~-------1---3p1--------1---------|--1-------1---0h1------------------|
G||---0---0~---0------0-------0---0---|----2---2---2-----2------0h2-2-----|
D||-----2-----------------------2---2~|--3---3-------------3-3--------3---|
A||-3~--------------------------------|-----------------------------------|
E|------------------------------------|-----------------------------------|

Sit down please                                             Sit Down Please
e|--------0~------------3p0-----------|--------0---------------0-----0~--|
B||-1~-------1---3p1--------1---------|--1-------1---0h1---------3p1-1~-||
G||---0---0~---0------0-------0---0---|----2---2---2-----2-----------0~-||
D||-----2-----------------------2---2~|--3---3-------------3---------2~-||
A||-3~--------------------------------|------------------------------3~-||
E|------------------------------------|----------------------------------|

            
            
Suggest correction
Creating personal tab
Creating personal tab
You can edit any tab online and save it as your Personal.

You can edit, replace or remove any tab part or add personal notes – all changes will be seen only by you.

Personal tabs can be accessed anytime from any device, even offline.
Learn more »
Give kudos to tab author, rate the tab!
1 2 3 4 5
comments
print report bad tab
guest
You may want to rate the tab now too:
select rating
Wanna post a correction for this tab? Suggest correction