Oops, an error
Loading. Please wait.

So Far Gone tab

version 5
version 5

Whole song

330 views 3 this week
no commentswrite comment
1 2 3 4 5
3 more votes to show rating
add to favorites
×
Save as Personal and add changes to this tab that will be seen only by you. Learn more ›
×
You can save this tab as Personal to edit and correct it or add notes. All changes will be seen only by you. Learn more »
launch autoscroll
font size
0
reset
how to read this tab
guitar tuner
edit
Autoscroll
slow
fast
+/-
esc
set tempo
stop
Guitar I: Acoustic (Standard; Capo 3)
Guitar II: Electric (Standard)

*NOTE* the notes played in the first two choruses primarily are the top two strings in the chords for the 
chorus post-bridge. 



Intro/Verses: x4
Guitar I
E|---------------------------------3-----------------------------------|
B|-0----------------3---3----------3-----3----------------------1-0----|
G|-0h2-0----0---0-0-2-0-2-0--------0-----0-----2-2-0---0---0------0--0-|
D|-------0--2---2-0-0---0------0h2-2-----2-2---0-0---4-2-2-2-0--2-2--2-|
A|----------2---2-0----------3---------3------------------------3------|
E|---------------------------------------------------------------------|

Guitar II: Comes in on the second time the acoustic plays its part
e|----------------------------------------------------------------------------------------|
B|-------18-18-16-15-13-------------------------------------------------------------------|
G|-19-19---------------------------------------17-17-------19-19--------------------------|
D|----------------------15/17\15/17\15~--20-20-------20-20-------20-20~-19h20p19--15-15/17|
A|----------------------------------------------------------------------------------------|
E|----------------------------------------------------------------------------------------|

Chorus I:
Guitar I
E|--------------------------------|     |-------|
B|--------------------------------|     |-0---0-|
G|--------------------------------|     |-0-2-0-|
D|--------------------------------| x2  |-0---0-|
A|-------0-(x8)--------3-(x8)-----|     |-------|
E|-3-(x8)-------0-(x8)------------|     |-------|
pm .     .      .      .

Intro/Verse
Chorus I: x2

Bridge:
    Em
I wanna be lost in you
        C9
Like a ship in the night
             G
I wanna get lost in you
    Dsus
Underneath your sky
            Em
I wanna be lost in you
        C9
Like a ship in the night
     G      Dsus
So far gone tonight

Chorus II: Guitar I plays regular chords while Guitar II plays with Slight Distortion & Chorus/Reverb
G           Dsus            Em
I wanna be so far gone in you
                C9               G
So far nothing else will ever do
             Dsus            Em
I wanna be so far gone in you
 C9
In you

Break: Same as Above
G  Dsus Em

Ending: Same as Chorus above
 C9               G
So far gone in you
     Dsus
In you
    Em
In you
C9                G
So far gone in you

            
            
Suggest correction
Creating personal tab
Creating personal tab
You can edit any tab online and save it as your Personal.

You can edit, replace or remove any tab part or add personal notes – all changes will be seen only by you.

Personal tabs can be accessed anytime from any device, even offline.
Learn more »
Give kudos to tab author, rate the tab!
1 2 3 4 5
comments
print report bad tab
guest
You may want to rate the tab now too:
select rating
Wanna post a correction for this tab? Suggest correction