Oops, an error
Loading. Please wait.
We have an official Untraveled Road tab made by UG professional guitarists. Check out the tab »
×

Untraveled Road tab

version 1
version 1

Whole song

  • Covering every element of the song, not just the power chords or just the intro.
  • My tabs version is diffrent because I try to inclu... Show more

Interactive

16,113 views 42 this week
10 commentsread comments
1 2 3 4 5
x 18
add to favorites
×
Save as Personal and add changes to this tab that will be seen only by you. Learn more ›
×
You can save this tab as Personal to edit and correct it or add notes. All changes will be seen only by you. Learn more »
launch autoscroll
font size
0
reset
how to read this tab
guitar tuner
edit
Autoscroll
slow
fast
+/-
esc
set tempo
stop
-------------------------------------------------------------------------------
                             UNTRAVELED ROAD - Thousand Foot Krutch
-------------------------------------------------------------------------------
Tabbed by: theefires168
E-mail: Taylorwatthe@gmail.com

Tuning: Drop B

[Verse]
C#|-------------------------------------------------------------------------|
G#|-------------------------------------------------------------------------|
E |-------------------------------------------------------------------------|
B |----9----9----9----9--------12------12------12------12-------------------| 4 x
F#|-77---77---77---77---7-1010----1010----1010----1010----------------------|
B |-------------------------------------------------------------------------|

C#|---------------------------------------------------------|
G#|---12----12---15----15-----------------------------------|
E |-10----10---12---12--------------------------------------| 2x
B |---------------------------------------------------------|
F#|---------------------------------------------------------|
B |---------------------------------------------------------|

C#|--------------------------------------------------------------------------|
G#|--------------------------------------------------------------------------|
E |--------------------------------------------------------------------------|
B |-2-x-x-x-2-2-5-x-x-5-5-5-0-x-x-0-0-0-7-x-x-7-7-5--------------------------|
F#|-2-x-x-x-2-2-5-x-x-5-5-5-0-x-x-0-0-0-7-x-x-7-7-5--------------------------|
B |-2-x-x-2-2-2-5-x-x-5-5-5-0-x-x-0-0-0-7-x-x-7-7-5--------------------------|

C#|--------------------------------------------------------------------------|
G#|--------------------------------------------------------------------------|
E |-------------------------7-x-x-x-7-7------7-7-7---------------------------|
B |-0-x-x-x-0-0-3-x-x-x-3-3-7-x-x-x-7-7-7------------------------------------|
F#|-0-x-x-x-0-0-3-x-x-x-3-3-3-x-x-x-3-3-7------------------------------------|
B |-0-x-x-x-0-0-3-x-x-x-3-3-------------7------------------------------------|

[Chorus]
C#|--------------------------------------------------------------------------|
G#|--------------------------------------------------------------------------|
E |---------------------------------7-7-7-7-7-7-7-7--------------------------|
B |-0-0-0-0-0-0-0-0-3-3-3-3-3-3-3-3-7-7-7-7-7-7-7-7-7-7-7-7-7-7-7-7----------|
F#|-0-0-0-0-0-0-0-0-3-3-3-3-3-3-3-3-3-3-3-3-3-3-3-3-7-7-7-7-7-7-7-7----------|
B |-0-0-0-0-0-0-0-0-3-3-3-3-3-3-3-3-----------------7-7-7-7-7-7-7-7----------|

C#|--------------------------------------------------------------------------|
G#|--------------------------------------------------------------------------|
E |---------------------------------7-7-7-7-7-7-7-7--------------------------|
B |-0-0-0-0-0-0-0-0-3-3-3-3-3-3-3-3-7-7-7-7-7-7-7-7-7-7-7-7-7-7-7-7----------|
F#|-0-0-0-0-0-0-0-0-3-3-3-3-3-3-3-3-3-3-3-3-3-3-3-3-7-7-7-7-7-7-7-7----------|
B |-0-0-0-0-0-0-0-0-3-3-3-3-3-3-3-3-----------------7-7-7-7-7-7-7-7----------|

[Verse]
C#|--------------------------------------------------------------------------|
G#|--------------------------------------------------------------------------|
E |--------------------------------------------------------------------------|
B |----7----7----7----7-----10----10----10----10-----------------------------| 3x
F#|-77---77---77---77---7-88----88----88----88-------------------------------|
B |--------------------------------------------------------------------------|

C#|--------------------------------------------------------------------------|
G#|-----10-----10---------13-------13----------------------------------------|
E |-7-7----7-7----7-10-10----10-10----10-------------------------------------| 2x
B |--------------------------------------------------------------------------|
F#|--------------------------------------------------------------------------|
B |--------------------------------------------------------------------------|

C#|--------------------------------------------------------------------------|
G#|--------------------------------------------------------------------------|
E |-------------------------7-x-x-x-7-7--------------------------------------|
B |-0-x-x-x-0-0-3-x-x-x-3-3-7-x-x-x-7-7-7-x-x-x-7-3--------------------------|
F#|-0-x-x-x-0-0-3-x-x-x-3-3-3-x-x-x-3-3-7-x-x-x-7-3--------------------------|
B |-0-x-x-x-0-0-3-x-x-x-3-3-------------7-x-x-x-7-3--------------------------|

C#|--------------------------------------------------------------------------|
G#|--------------------------------------------------------------------------|
E |-------------------------7-x-x-x-7-7------7-7-7---------------------------|
B |-0-x-x-x-0-0-3-x-x-x-3-3-7-x-x-x-7-7-7------------------------------------|
F#|-0-x-x-x-0-0-3-x-x-x-3-3-3-x-x-x-3-3-7------------------------------------|
B |-0-x-x-x-0-0-3-x-x-x-3-3-------------7------------------------------------|

[Chorus] (play 2x)
C#|--------------------------------------------------------------------------|
G#|--------------------------------------------------------------------------|
E |---------------------------------7-7-7-7-7-7-7-7--------------------------|
B |-0-0-0-0-0-0-0-0-3-3-3-3-3-3-3-3-7-7-7-7-7-7-7-7-7-7-7-7-7-7-7-7----------|
F#|-0-0-0-0-0-0-0-0-3-3-3-3-3-3-3-3-3-3-3-3-3-3-3-3-7-7-7-7-7-7-7-7----------|
B |-0-0-0-0-0-0-0-0-3-3-3-3-3-3-3-3-----------------7-7-7-7-7-7-7-7----------|

C#|--------------------------------------------------------------------------|
G#|--------------------------------------------------------------------------|
E |---------------------------------7-7-7-7-7-7-7-7--------------------------|
B |-0-0-0-0-0-0-0-0-3-3-3-3-3-3-3-3-7-7-7-7-7-7-7-7-7-7-7-7-7-7-7-7----------|
F#|-0-0-0-0-0-0-0-0-3-3-3-3-3-3-3-3-3-3-3-3-3-3-3-3-7-7-7-7-7-7-7-7----------|
B |-0-0-0-0-0-0-0-0-3-3-3-3-3-3-3-3-----------------7-7-7-7-7-7-7-7----------|

[Bridge]
C#|--------------------------------------------------------------------------|
G#|-333333-44-777777-88-77777677-4444-11-------------------------------------|
E |--------------------------------------------------------------------------| 4x
B |--------------------------------------------------------------------------|
F#|--------------------------------------------------------------------------|
B |--------------------------------------------------------------------------|

[Chorus] (play 3x)
C#|--------------------------------------------------------------------------|
G#|--------------------------------------------------------------------------|
E|---------------------------------7-7-7-7-7-7-7-7--------------------------|
B|-0-0-0-0-0-0-0-0-3-3-3-3-3-3-3-3-7-7-7-7-7-7-7-7-7-7-7-7-7-7-7-7----------|
F#|-0-0-0-0-0-0-0-0-3-3-3-3-3-3-3-3-3-3-3-3-3-3-3-3-7-7-7-7-7-7-7-7----------|
B|-0-0-0-0-0-0-0-0-3-3-3-3-3-3-3-3-----------------7-7-7-7-7-7-7-7----------|

C#|--------------------------------------------------------------------------|
G#|--------------------------------------------------------------------------|
E |---------------------------------7-7-7-7-7-7-7-7--------------------------|
B |-0-0-0-0-0-0-0-0-3-3-3-3-3-3-3-3-7-7-7-7-7-7-7-7-7-7-7-7-7-7-7-7----------|
F#|-0-0-0-0-0-0-0-0-3-3-3-3-3-3-3-3-3-3-3-3-3-3-3-3-7-7-7-7-7-7-7-7----------|
B |-0-0-0-0-0-0-0-0-3-3-3-3-3-3-3-3-----------------7-7-7-7-7-7-7-7----------|


************************************


| x   Mute note


************************************

            
            
Suggest correction
Creating personal tab
Creating personal tab
You can edit any tab online and save it as your Personal.

You can edit, replace or remove any tab part or add personal notes – all changes will be seen only by you.

Personal tabs can be accessed anytime from any device, even offline.
Learn more »
comments
print report bad tab
10 comments total. Showing first comments.
0 reply
jbjerber 10 Aug 21, 2014 06:03 PM

Someone please make a bass tab!

-1 reply
wesmartin17 10 Aug 26, 2014 12:49 PM

Someone make a tab with different tuning, too much work to change tuning lol

+1 reply
TheBassMeister 140 Aug 28, 2014 01:17 PM

I'm pretty sure this song is in Drop B, not Drop C#. That's only a half-step difference which can be pretty hard to distinguish, but try the Guitar Pro tab here and see if it doesn't sound better.

guest
You may want to rate the tab now too:
select rating
Wanna post a correction for this tab? Suggest correction