Oops, an error
Loading. Please wait.

Welcome To The Masquerade tab

version 2
version 2

Whole song

Interactive

29,468 views 21 this week
6 commentsread comments
1 2 3 4 5
x 13
add to favorites
×
Save as Personal and add changes to this tab that will be seen only by you. Learn more ›
×
You can save this tab as Personal to edit and correct it or add notes. All changes will be seen only by you. Learn more »
launch autoscroll
font size
0
reset
how to read this tab
guitar tuner
edit
Autoscroll
slow
fast
+/-
esc
set tempo
stop
Heres My New Version

Tunings Drop B This Time B F# B E C# G# Intro

 ------------------------------------------------------------------------------|
-------------------------------------------------------------------------------|
-------------------------------------------------------------------------------|
--0-0-0--7-7-7--3-3-3--8-8-7--0-0-0--7-7--3-5-5-3-2-3-2-3-2--------------------|
--0-0-0--7-7-7--3-3-3--8-8-7--0-0-0--7-7--3-5-5-3-2-3-2-3-2--------------------|
--0-0-0--7-7-7--3-3-3--8-8-7--0-0-0--7-7--3-5-5-3-2-3-2-3-2--------------------|

-----------------------------------------------------------------------------|
-----------------------------------------------------------------------------|
-----------------------------------------------------------------------------|
--0-0-0--7-7-7--3-3-3--8-8-7--0-0-0--7-7--3-3-5-5-5-3-3-2--------------------|
--0-0-0--7-7-7--3-3-3--8-8-7--0-0-0--7-7--3-3-5-5-5-3-3-2--------------------|
--0-0-0--7-7-7--3-3-3--8-8-7--0-0-0--7-7--3-3-5-5-5-3-3-2--------------------|

                                   Verse

 ----------------------------------------------------------------------|
 ----------------------------------------------------------------------|
 ----------------------------------------------------------------------|
 7---------8---7----------3---7-------8--3-3-3--5-5--------------------|
 7---------8---7----------3---7-------8--3-3-3--5-5--------------------|
 7-0000000-8-0-7--0000000-3-0-7--0000-8--3-3-3--5-5--------------------|
   .......   .    .......   .    ....
   2 Times
                         Pre Chorus
 --------5----------5----------5---------5---6----------------------------|
 ------6----------6----------6---------6---6---6--------------------------|
 --7-7-----6--6-6-----5--5-5------4--4------------------------------------|
 -------------------------------------------------------------------------|
 -------------------------------------------------------------------------|
 -------------------------------------------------------------------------|

                             Chorus
 -----------------------------------------------------------------------|
 -----------------------------------------------------------------------|
 -----------------------------------------------------------------------|
 --0----------8--------10---7-7-8-8-10-8-7------------------------------|
 --0----------8--------10---7-7-8-8-10-8-7------------------------------|
 --0----------8--------10---7-7-8-8-10-8-7------------------------------|
                            . . . . . . .
 Post Chorus Same As Chorus

 ---------------------------------------------------------------------------|
 ---------------------------------------------------------------------------|
 ---------------------------------------------------------------------------|
 --8-7-0-7-8---8-7-0-4-3----8-7-0-7-8--3-3--3-5-5---------------------------|
 --8-7-0-7-8---8-7-0-4-3----8-7-0-7-8--3-3--3-5-5---------------------------|
 --8-7-0-7-8---8-7-0-4-3----8-7-0-7-8--3-3--3-5-5---------------------------|

                 Bridge 2
 -------------------------------------------------|
 -------------------------------------------------|
 -------------------------------------------------|
 -0-0-0-0-8-8-8-8-11-11-11-11-7-7-7-7-------------|
 -0-0-0-0-8-8-8-8-11-11-11-11-7-7-7-7-------------|
 -0-0-0-0-8-8-8-8-11-11-11-11-7-7-7-7-------------|
  . . . . . . . . .  .  .  .  . . . .

 --12--12--12--12--12--12--12--12-0--------------------|
 ----10--10--10--10--10--10--10------------------------|
 ------------------------------------------------------|
 ------------------------------------------------------|
 ------------------------------------------------------|
 ------------------------------------------------------|

     Palm Mute =.

            
            
Suggest correction
Creating personal tab
Creating personal tab
You can edit any tab online and save it as your Personal.

You can edit, replace or remove any tab part or add personal notes – all changes will be seen only by you.

Personal tabs can be accessed anytime from any device, even offline.
Learn more »
comments
print report bad tab
6 comments total. Showing first comments.
0 reply
kalemlalonde 10 Jan 21, 2010 11:19 AM

Sick Tab I Love This Song

0 reply
codjutyro 10 Feb 08, 2010 06:16 AM

great tab.... i just saw tfk play this song live at ATF
awsome song

0 reply
kaulthelegend 162 Feb 16, 2010 03:54 PM

If You Wanna Hear What It Sounds Like http://www.youtube.com/watch?v=lzHEnV4GvOU Theres My Vid

guest
You may want to rate the tab now too:
select rating
Wanna post a correction for this tab? Suggest correction