Oops, an error
Loading. Please wait.

Wish You Well tab

version 2
version 2

Whole song

Interactive

47,435 views 18 this week
8 commentsread comments
1 2 3 4 5
x 38
add to favorites
×
Save as Personal and add changes to this tab that will be seen only by you. Learn more ›
×
You can save this tab as Personal to edit and correct it or add notes. All changes will be seen only by you. Learn more »
launch autoscroll
font size
0
reset
how to read this tab
guitar tuner
edit
Autoscroll
slow
fast
+/-
esc
set tempo
stop
Author
Difficulty
Thousand Foot Krutch-Wish You Well
Album-The Flame In All Of Us
Tabbed by: overflowme/schecter777
Email: strummer99@cox.net

All guitars tuned E-A-D-G-B-E

Key:
x=mute
~=let ring


[Intro]

[------------------------------------------------------------]
[-----------------------8-------------0-------------0-----0--]
[------0------------0-----0---0-----0----0------0-------5----]
[----9---10--9----7---7-----7-----5-----------5---5---5------]
[--7------------5---------------3-----------3----------------]
[------------------------------------------------------------]

[------------------------------------------------------------]
[-----------------------8-------------0-------------0-----0--]
[------0------------0-----0---0-----0----0------0-------7----]
[----9---10--9----7---7-----7-----5-----------5---5---5------]
[--7------------5---------------3-----------3----------------]
[------------------------------------------------------------]


[Verse 1]

[------------------------------------------------------------]
[-----------------------8-------------0-------------0-----0--]
[------0------------0-----0---0-----0----0------0-------5----]
[----9---10--9----7---7-----7-----5-----------5---5---5------]
[--7------------5---------------3-----------3----------------]
[------------------------------------------------------------]

[------------------------------------------------------------]
[-----------------------8-------------0---------0---0-----0--]
[------0------------0-----0---0-----0----0--------0---0-7----]
[----9---10--9----7---7-----7-----5-----------5--------------]
[--7------------5---------------3-----------3----------------]
[------------------------------------------------------------]


[Chorus]

[---------------------------------------------]
[---------------------------------------------]
[------0---------0---------0---------0-----0--]
[----0---------0---------0---------0-----0----]
[------------5---------3---------7-----5------]
[--3------------------------------------------]

[---------------------------------------------]
[---------------------------------------------]
[------0---------0---------0---------0-----0--]
[----0---------0---------0---------0-----0----]
[----------------------3---------7-----5------]
[--3---------2--------------------------------]


[Post-Chorus]

[---------------------------------------------------------------]
[----------0---------------0---------------0------------0-------]
[------0-----0---0-----0-----0---0-----0-----0------0------0----]
[----0---0-----0-----0---0-----0-----0---0-----0------0---------]
[----------------------------------3-------------3-----------0--]
[--3---------------0--------------------------------------------]


[Verse 2]

[------------------------------------------------------------]
[-----------------------8-------------0-------------0-----0--]
[------0------------0-----0---0-----0----0------0-------5----]
[----9---10--9----7---7-----7-----5-----------5---5---5------]
[--7------------5---------------3-----------3----------------]
[------------------------------------------------------------]

[------------------------------------------------------------]
[-----------------------8-------------0-------------0-----0--]
[------0------------0-----0---0-----0----0------0-------7----]
[----9---10--9----7---7-----7-----5-----------5---5---5------]
[--7------------5---------------3-----------3----------------]
[------------------------------------------------------------]

(Chorus)

(Post-Chorus) 2x


[Bridge]

[-----------------------------------------------------------------]2x
[-----------------------------------------------------------------]
[-------------------5-----5-----5---------------------7--7--5--5--]
[--2-x-x-2-x-x-2-xx-5-x-x-5-x-x-5-xx-2-x-x-2-x-x-2-xx-7--7--5--5--]
[--2-x-x-2-x-x-2-xx-3-x-x-3-x-x-3-xx-2-x-x-2-x-x-2-xx-5--5--3--3--]
[--0-x-x-0-x-x-0-xx---x-x---x-x---xx-0-x-x-0-x-x-0-xx-------------]


[Chorus 2]

[---------------------------------------------------------------]
[--3----3--3--3-3-3----3--3--3-3-3----3--3--3-3-3----3--3--3-3--]
[--0----0--0--0-0-2----2--2--2-2-0----0--0--0-0-2----2--2--2-2--]
[--0--x-0--0--0-0-0--x-0--0--0-0-x--x-x--x--x-x-2--x-2--2--2-2--]
[--x--x-x--x--x-x----x-----------3--x-3--3--3-3-0--x-0--0--0-0--]
[--3--x-3--3--3-3----x--------------x--------------x------------]

[---------------------------------------------------------------]
[--3----3--3--3-3-3----3--3--3-3-3----3--3--3-3-3----3--3--3-3--]
[--0----0--0--0-0-0----0--0--0-0-2----2--2--2-2-0----0--0--0-0--]
[--0--x-0--0--0-0-0--x-0--0--0-0-2--x-2--2--2-2-x--x-x--x--x-x--]
[--x--x-x--x--x-x-x--x-x--x--x-x-0--x-0--0--0-0-3--x-3--3--3-3--]
[--3--x-3--3--3-3-2--x-2--2--2-2----x--------------x------------]

[---------------------------------------------------------------]
[--3----3--3--3-3-3----3--3--3-3-3----3--3--3-3-3----3--3--3-3--]
[--0----0--0--0-0-2----2--2--2-2-0----0--0--0-0-2----2--2--2-2--]
[--0--x-0--0--0-0-0--x-0--0--0-0-x--x-x--x--x-x-2--x-2--2--2-2--]
[--x--x-x--x--x-x----x-----------3--x-3--3--3-3-0--x-0--0--0-0--]
[--3--x-3--3--3-3----x--------------x--------------x------------]

[-----------------------------------------------------]
[--3----3--3--3-3-3----3--3--3-3-3----3--3--3-3-3~~~--]
[--0----0--0--0-0-0----0--0--0-0-2----2--2--2-2-0~~~--]
[--0--x-0--0--0-0-0--x-0--0--0-0-2--x-2--2--2-2-x~~~--]
[--x--x-x--x--x-x-x--x-x--x--x-x-0--x-0--0--0-0-3~~~--]
[--3--x-3--3--3-3-2--x-2--2--2-2----x-----------------]


[Outro]

[---------------------------------------------]
[---------------------------------------------]
[------0---------0---------0---------0-----0--]
[----0----0----0----0----0----0----0-----0----]
[------------5---------3---------7-----5------]
[--3------------------------------------------]

[-------------------------------------------------]
[-------------------------------------------------]
[------0---------0---------0---------0-------0----]
[----0----0----0----0----0----0----0---0---0---0--]
[----------------------3---------7-------5--------]
[--3---------2------------------------------------]

[---------------------------------------------------------------]
[----------0---------------0---------------0------------0-------]
[------0-----0---0-----0-----0---0-----0-----0------0------0----]
[----0---0-----0-----0---0-----0-----0---0-----0------0---------]
[----------------------------------3-------------3-----------0--]
[--3---------------0--------------------------------------------]

[--------------------------------------------------------------------]
[----------0---------------0---------------0------------0------------]
[------0-----0---0-----0-----0---0-----0-----0------0------0---------]
[----0---0-----0-----0---0-----0-----0---0-----0------0------0-------]
[----------------------------------3-------------3--------------3~~--]
[--3---------------0-------------------------------------------------]

            
            
Suggest correction
Creating personal tab
Creating personal tab
You can edit any tab online and save it as your Personal.

You can edit, replace or remove any tab part or add personal notes – all changes will be seen only by you.

Personal tabs can be accessed anytime from any device, even offline.
Learn more »
comments
print report bad tab
8 comments total. Showing first comments.
+1 reply
Artres 10 Nov 03, 2007 03:41 AM

great tab!
thank you man!!

+1 reply
lil-pimp 10 Feb 07, 2008 07:35 PM

Mint tab bro!! keep them coming :D

+1 reply
canadianeh? 31 Apr 27, 2009 12:55 PM

I think it is easier to play the verses like this:

e|--------------------3---------------------------------------------|
B|----0---1-0-----------------------0-----------0-----0-------------|
G|------0-------2-0-2---0-2-0-----0---0-----0-------5---------------|
D|--2---------0-----------------5---------5---5---5-----------------|
A|----------------------------3---------3---------------------------|
E|------------------------------------------------------------------|

I know this isn't how TFK plays it because you can hear all the sliding on the neck in the background, but i just find this easier.

guest
You may want to rate the tab now too:
select rating
Wanna post a correction for this tab? Suggest correction