Oops, an error
Loading. Please wait.

Eddie tab

version 1
version 1

Whole song

3,332 views 1 this week
5 commentsread comments
1 2 3 4 5
x 5
add to favorites
×
Save as Personal and add changes to this tab that will be seen only by you. Learn more ›
×
You can save this tab as Personal to edit and correct it or add notes. All changes will be seen only by you. Learn more »
launch autoscroll
font size
0
reset
how to read this tab
guitar tuner
edit
Autoscroll
slow
fast
+/-
esc
set tempo
stop
 This is a song by a band who is now known as three days grace, it was released when 
name was groundswell

This is also my first tab so don't be too hard on me when you're correcting it, i 
find a tab for this song anywhere on the net so i decided to make one

E------------------------------------------------------------------ gtr 1--|
B--------5---------------------5----------5--------------------------------| intro
G--------------------------------------------------------------------------|
D----2-----2-------------2---------2----------2----------------------------|
A--0----------0-----------------------------------0------------------------|
D----------------0---3-----------------------------------------------------|
 repeat however many times...

gtr 2

E---------------------------------------------|intro solo thing
G---------------------------------------------|
D---\7---7h10--12---10---9---7----------------|
A---------------------------------------------|
D---------------------------------------------|

E------------------------------------------|
B------------------------------------------|
G------------------------------------------|
D----15---14----12---17---15---14--14------|
A------------------------------------------|
D------------------------------------------|

verse:

E--0--0--0--------------------------------------| This Plays with the intro for the
B--1--1--1--------------------------------------| Verse
G--0--0--0--------------------------------------|
D--2--2--2--------------------------------------|
A--3--3--3--------------------------------------|
D--x--x--x--------------------------------------|

Chorus:
E--------------------------------------------|
B--------------------------------------------|
G--------------------------------------------|
D--5--x-x--5--3--0---------------------------|
A--5--x-x--5--3--0---------------------------| repeat however many times
D--5--x-x--5--3--0---------------------------|

Solo

E--------------------------------------16------------------------------------|
B----16h17---16h17---16h17----15h17-------16h18---b15----10--(half)b-15--10--|
G----------------------------------------------------------------------------|
D----------------------------------------------------------------------------|
A----------------------------------------------------------------------------|
D----------------------------------------------------------------------------|
....well at least thats part of the solo, better than nothin, i think

If you have any corrections or comments email me at tj-lowry@hotmail.com

            
            
Suggest correction
Creating personal tab
Creating personal tab
You can edit any tab online and save it as your Personal.

You can edit, replace or remove any tab part or add personal notes – all changes will be seen only by you.

Personal tabs can be accessed anytime from any device, even offline.
Learn more »
comments
print report bad tab
5 comments total. Showing first comments.
0 reply
upthachuff 113 Nov 06, 2008 04:00 PM

First part of the intro's alright, second part, not even close, try an Am chord then an F/Am chord, saves having to stretch your fingers to the fifth fret unecessarily. And the songs played in standard, no drop d. The second guitar on the intro is close but not quite. as for the chords, try a C to Am, but on the second 'bridge' it is just C.

0 reply
Sk8ingShadow 30 Jan 15, 2009 06:29 PM

Here's how the intro solo should be:
|-----------------------------------------------
|-----------------------------------------------
|9---9-12--14-12-11-9---17-15-14--19-17-14-16---
|-----------------------------------------------
|-----------------------------------------------
|-----------------------------------------------

0 reply
Sk8ingShadow 30 Jan 23, 2009 11:21 AM

Intro Whops, my mistake; it should be D string

guest
You may want to rate the tab now too:
select rating
Wanna post a correction for this tab? Suggest correction