Oops, an error
Loading. Please wait.
We have an official I Am Machine tab made by UG professional guitarists. Check out the tab »
×
41,478 views 90 this week
12 commentsread comments
1 2 3 4 5
x 26
add to favorites
×
Save as Personal and add changes to this tab that will be seen only by you. Learn more ›
×
You can save this tab as Personal to edit and correct it or add notes. All changes will be seen only by you. Learn more »
launch autoscroll
font size
0
reset
how to read this tab
guitar tuner
edit
Autoscroll
slow
fast
+/-
esc
set tempo
stop
-------------------------------------------------------------------------------
                             I Am Machine - Three Days Grace
-------------------------------------------------------------------------------
Tabbed by: EliasGarciarena
For suggestions please e-mail me at: elias.garciarena@gmail.com

Tuning: Drop C ( C G C F A D )

0:09

D|---------------------------------------------------------------------------|
A|---------------------------------------------------------------------------|
F|---------------------------------------------------------------------------|
C|---------------------------------------------------------------------------|
G|-0-2-0-2-0-2-0-2-0-2-0-10--9--7--5-----------------------------------------|
C|-0-2-0-2-0-2-0-2-0-2-0-10--9--7--5-----------------------------------------|

D|---------------------------------------------------------------------------|
A|---------------------------------------------------------------------------|
F|---------------------------------------------------------------------------|
C|---------------------------------------------------------------------------|
G|-10-12-10-12-10-12-10-12-10-12-10--7--9--10--4b~---------------------------|
C|-10-12-10-12-10-12-10-12-10-12-10--7--9--10--4b~---------------------------|


0:22

D|---------------------------------------------------------------------------|
A|---------------------------------------------------------------------------|
F|---------------------------------------------------------------------------|
C|---------------------------------------------------------------------------|
G|-2-2-2---------2-2-2---------2-2-2---------2-2-2---------------------------|
C|-2-2-2--x-x----2-2-2--x-x----2-2-2--x-x----2-2-2--x-x----------------------|

Here's to being human, all the pain and suffering, there's beauty in the bleeding,
At least you feel something...


0:34

D|---------------------------------------------------------------------------|
A|---------------------------------------------------------------------------|
F|---------------------------------------------------------------------------| Slowly...
C|---------------------------------------------------------------------------|
G|-14-14-14-14-14-14--12-12-12-12-12-12--10-10-10-10-10-10--9-9-9-9-9-9------|
C|-14-14-14-14-14-14--12-12-12-12-12-12--10-10-10-10-10-10--9-9-9-9-9-9------| 

I wish I knew what it was like, to care enough to carry on

D|---------------------------------------------------------------------------|
A|---------------------------------------------------------------------------|
F|---------------------------------------------------------------------------|
C|---------------------------------------------------------------------------|
G|-14-14-14-14-14-14--12-12-12-12-12-12--10-10-10-10-10-10--9-9-9-9--9-9-----|
C|-14-14-14-14-14-14--12-12-12-12-12-12--10-10-10-10-10-10--9-9-9-9--9-9-----|

I wish I knew what it was like, to find a place where I belong, but


0:47

D|---------------------------------------------------------------------------|
A|---------------------------------------------------------------------------|
F|---------------------------------------------------------------------------|
C|---------------------------------------------------------------------------|
G|-0-2-0-2-0-2-0-2-0-2-0-10--9--7--5-----------------------------------------|
C|-0-2-0-2-0-2-0-2-0-2-0-10--9--7--5-----------------------------------------|

I am machine, I never sleep, I keep my eyes wide open...

D|---------------------------------------------------------------------------|
A|---------------------------------------------------------------------------|
F|---------------------------------------------------------------------------|
C|---------------------------------------------------------------------------|
G|-10-12-10-12-10-12-10-12-10-12-10--7--9--10--4b~---------------------------|
C|-10-12-10-12-10-12-10-12-10-12-10--7--9--10--4b~---------------------------|

I am machine, a part of me wishes I could just feel something...

D|---------------------------------------------------------------------------|
A|---------------------------------------------------------------------------|
F|---------------------------------------------------------------------------|
C|---------------------------------------------------------------------------|
G|-0-2-0-2-0-2-0-2-0-2-0-10--9--7--5-----------------------------------------|
C|-0-2-0-2-0-2-0-2-0-2-0-10--9--7--5-----------------------------------------|

I am machine, I never sleep, until I fix what's broken

D|---------------------------------------------------------------------------|
A|---------------------------------------------------------------------------|
F|---------------------------------------------------------------------------|
C|---------------------------------------------------------------------------|
G|-10-12-10-12-10-12-10-12-10-12-10--7--9--10--4b~---------------------------|
C|-10-12-10-12-10-12-10-12-10-12-10--7--9--10--4b~---------------------------|

I am machine, a part of me wishes I could just feel something...


1:12

D|---------------------------------------------------------------------------|
A|---------------------------------------------------------------------------|
F|---------------------------------------------------------------------------|
C|---------------------------------------------------------------------------|
G|-2-2-2---------2-2-2---------2-2-2---------2-2-2---------------------------|
C|-2-2-2--x-x----2-2-2--x-x----2-2-2--x-x----2-2-2--x-x----------------------|

Here's to being human, taking it for granted, the highs and lows of living,
to getting second chances...


1:25

D|---------------------------------------------------------------------------|
A|---------------------------------------------------------------------------|
F|---------------------------------------------------------------------------| Slowly...
C|---------------------------------------------------------------------------|
G|-14-14-14-14-14-14--12-12-12-12-12-12--10-10-10-10-10-10--9-9-9-9-9-9------|
C|-14-14-14-14-14-14--12-12-12-12-12-12--10-10-10-10-10-10--9-9-9-9-9-9------|

I wish I knew what it was like, to care about what's right or wrong
D|---------------------------------------------------------------------------|
A|---------------------------------------------------------------------------|
F|---------------------------------------------------------------------------|
C|---------------------------------------------------------------------------|
G|-14-14-14-14-14-14--12-12-12-12-12-12--10-10-10-10-10-10--9-9-9-9--9-9-----|
C|-14-14-14-14-14-14--12-12-12-12-12-12--10-10-10-10-10-10--9-9-9-9--9-9-----|

I wish someone could help me find, find a place where I belong, but


1:38

D|---------------------------------------------------------------------------|
A|---------------------------------------------------------------------------|
F|---------------------------------------------------------------------------|
C|---------------------------------------------------------------------------|
G|-0-2-0-2-0-2-0-2-0-2-0-10--9--7--5-----------------------------------------|
C|-0-2-0-2-0-2-0-2-0-2-0-10--9--7--5-----------------------------------------|

I am machine, I never sleep, I keep my eyes wide open...

D|---------------------------------------------------------------------------|
A|---------------------------------------------------------------------------|
F|---------------------------------------------------------------------------|
C|---------------------------------------------------------------------------|
G|-10-12-10-12-10-12-10-12-10-12-10--7--9--10--4b~---------------------------|
C|-10-12-10-12-10-12-10-12-10-12-10--7--9--10--4b~---------------------------|

I am machine, a part of me wishes I could just feel something...

D|---------------------------------------------------------------------------|
A|---------------------------------------------------------------------------|
F|---------------------------------------------------------------------------|
C|---------------------------------------------------------------------------|
G|-0-2-0-2-0-2-0-2-0-2-0-10--9--7--5-----------------------------------------|
C|-0-2-0-2-0-2-0-2-0-2-0-10--9--7--5-----------------------------------------|

I am machine, I never sleep, until I fix what's broken

D|---------------------------------------------------------------------------|
A|---------------------------------------------------------------------------|
F|---------------------------------------------------------------------------|
C|---------------------------------------------------------------------------|
G|-10-12-10-12-10-12-10-12-10-12-10--7--9--10--4b~---------------------------|
C|-10-12-10-12-10-12-10-12-10-12-10--7--9--10--4b~---------------------------|

I am machine, a part of me wishes I could just feel something...


2:04

D|---------------------------------------------------------------------------|
A|---------------------------------------------------------------------------|
F|---------------------------------------------------------------------------|
C|---------------------------------------------------------------------------|
G|-5~~-7~~---9~~-12~~---5~-7~~---3-3-3-3-3-3-3...----------------------------|
C|-5~~-7~~---9~~-12~~---5~-7~~---3-3-3-3-3-3-3...----------------------------|
                                                 (repeat up to 2:20)

It wasn't supposed to be this way, we were meant to feel the pain, I don't 
like what I am becoming, wish I could just feel something...


2:20


D|---------------------------------------------------------------------------|
A|---------------------------------------------------------------------------|
F|---------------------------------------------------------------------------|
C|---------------------------------------------------------------------------|
G|-2-2-2---------2-2-2---------2-2-2---------2-2-2---------------------------|
C|-2-2-2--x-x----2-2-2--x-x----2-2-2--x-x----2-2-2--x-x----------------------|


D|---------------------------------------------------------------------------|
A|---------------------------------------------------------------------------|
F|---------------------------------------------------------------------------|
C|---------------------------------------------------------------------------|
G|-2-2-2---------2-2-2---------2-2-2---------2-2-2---------------------------|
C|-2-2-2--x-x----2-2-2--x-x----2-2-2--x-x----2-2-2--x-x----------------------|


2:45


D|---------------------------------------------------------------------------|
A|---------------------------------------------------------------------------|
F|---------------------------------------------------------------------------|
C|---------------------------------------------------------------------------|
G|-0-2-0-2-0-2-0-2-0-2-0-10--9--7--5-----------------------------------------|
C|-0-2-0-2-0-2-0-2-0-2-0-10--9--7--5-----------------------------------------|

I am machine, I never sleep, I keep my eyes wide open...

D|---------------------------------------------------------------------------|
A|---------------------------------------------------------------------------|
F|---------------------------------------------------------------------------|
C|---------------------------------------------------------------------------|
G|-10-12-10-12-10-12-10-12-10-12-10--7--9--10--4b~---------------------------|
C|-10-12-10-12-10-12-10-12-10-12-10--7--9--10--4b~---------------------------|

I am machine, a part of me wishes I could just feel something...


D|---------------------------------------------------------------------------|
A|---------------------------------------------------------------------------|
F|---------------------------------------------------------------------------|
C|---------------------------------------------------------------------------|
G|-0-2-0-2-0-2-0-2-0-2-0-10--9--7--5-----------------------------------------|
C|-0-2-0-2-0-2-0-2-0-2-0-10--9--7--5-----------------------------------------|

I am machine, I never sleep, until I fix what's broken

D|---------------------------------------------------------------------------|
A|---------------------------------------------------------------------------|
F|---------------------------------------------------------------------------|
C|---------------------------------------------------------------------------|
G|-10-12-10-12-10-12-10-12-10-12-10--7--9--10--4b~---------------------------|
C|-10-12-10-12-10-12-10-12-10-12-10--7--9--10--4b~---------------------------|

I am machine, a part of me wishes I could just feel something...


3:11

D|---------------------------------------------------------------------------|
A|---------------------------------------------------------------------------|
F|---------------------------------------------------------------------------|
C|---------------------------------------------------------------------------|
G|-2-2-2---------2-2-2-------------------------------------------------------|
C|-2-2-2--x-x----2-2-2--x-x--------------------------------------------------|

************************************

| ~   vibrato
| x   Mute note: harmonic
| b   Bend

************************************

            
            
Suggest correction
Creating personal tab
Creating personal tab
You can edit any tab online and save it as your Personal.

You can edit, replace or remove any tab part or add personal notes – all changes will be seen only by you.

Personal tabs can be accessed anytime from any device, even offline.
Learn more »
comments
print report bad tab
12 comments total. Showing first comments.
0 reply
SkilletFan77 238 Sep 30, 2014 12:28 PM, edited at 04:29 pm

Metallic thing? You mean a fret?

0 reply
EliasGarciarena 150 Sep 30, 2014 03:05 PM, edited at 07:41 pm

No, actually the wire of the fret

0 reply
EliasGarciarena 150 Sep 30, 2014 03:37 PM, edited at 07:37 pm

Fixed :D

guest
You may want to rate the tab now too:
select rating
Wanna post a correction for this tab? Suggest correction