Oops, an error
Loading. Please wait.

Its All Over tab

version 4
version 4

Whole song

Interactive

40,205 views 48 this week
28 commentsread comments
1 2 3 4 5
x 35
add to favorites
×
Save as Personal and add changes to this tab that will be seen only by you. Learn more ›
×
You can save this tab as Personal to edit and correct it or add notes. All changes will be seen only by you. Learn more »
launch autoscroll
font size
0
reset
how to read this tab
guitar tuner
edit
Autoscroll
slow
fast
+/-
esc
set tempo
stop
Three Days Grace           *UPDATED Pinch Harmonics UPDATED*
It's All Over
Tabbed by U B the band
Tuning C G C F A D

Legend:
/-slide up                   p-pull off                 v-vibrato
()-optional                  h-hammer on                b-bend
\-slide down                 x-srcatch                  PH-Pinch Harmonics

Intro: 00:00 Guitar 2 (Distorted)
D|-------------------------------------------------------------------------|
A|--17/18-17-17-17-17--------18-17----18-17--------18\17--18\17--17--17----|
F|----------19-19-19-------19--(17)-19-----------19-----19-----19--19------|
C|-------------------------------------------------------------------------|
G|-------------------------------------------------------------------------|
C|-------------------------------------------------------------------------|
                                                                           |
Intro: 00:02 Guitar 1 (tremolo pick then volume fades)                     |
D|-------------------------------------------------------------------------|
A|-------------------------------------------------------------------------|
F|-------------------------------------------------------------------------|
C|-------------------------------------------------------------------------|
G|------5------------------------------------------------------------------|
C|------0------------------------------------------------------------------|

Guitar 2 cont.
D|-------------------------------------------------------------------------|
A|----18-17----17---18-17-15h17----17--17-----18-17---18-17----------17----|
F|--19-------19---17-------------17--19-----17------19---------19-17-------|
C|-------------------------------------------------------------------------|
G|-------------------------------------------------------------------------|
C|-------------------------------------------------------------------------|
                                                                           |
Guitar 1 cont.                                                             |
D|-------------------------------------------------------------------------|
A|-------------------6--5----5---------------------------------------------|
F|-------------------------7-----------------------------------------------|
C|-------------------------------------------------------------------------|
G|--5--------------5------------------5------------------------5-----------|
C|--0--------------0------------------0------------------------0-----------|

Guitar 2 cont.
D|-------------------------------------------------------------------------|
A|-------17----18-17----17--17--17--17--17--17--17-171717171717------------|
F|--17-19----19-------19---------------------------------------------------|
C|-------------------------------------------------------------------------|
G|-------------------------------------------------------------------------|
C|-------------------------------------------------------------------------|
                                                                           |
Guitar 1 cont.                                                             |
D|-------------------------------------------------------------------------|
A|-------------------------------------------------------------------------|
F|-------------------------------------------------------------------------|
C|-------------------------------------------------------------------------|
G|--5----------------------------------------------------------------------|
C|--0-------------------0----0----0----0----0---0---0---0--0--0------------|

Intro: Guitars 1 & 2 00:31 (Distorted)
D|-------------------------------------------------------------------------|
A|-------------------------------------------------------------------------|
F|-------------------------------------------------------------------------|
C|--0-0--0--7-7-7p0--3-3--3--2h3-2h3---0-0--0--7-7-7p0--3-3--3--2h3-2h3----|
G|--0-0--0--7-7-7p0--3-3--3--2h3-2h3---0-0--0--7-7-7p0--3-3--3--2h3-2h3----|
C|--0-0--0--7-7-7p0--3-3--3--2h3-2h3---0-0--0--7-7-7p0--3-3--3--2h3-2h3----|

D|-------------------------------------------------------------------------|
A|-------------------------------------------------------------------------|
F|-------------------------------------------------------------------------|
C|--0-0--0--7-7-7p0--3-3--3--2h3-2h3---5--5--5--5--5--5--5----3------------|
G|--0-0--0--7-7-7p0--3-3--3--2h3-2h3---5--5--5--5--5--5--5----3------------|
C|--0-0--0--7-7-7p0--3-3--3--2h3-2h3---5--5--5--5--5--5--5----3------------|

Verse 1: Guitar 1 00:42 (Distorted & Palm Muted)
D|-------------------------------------------------------------------------|
A|-------------------------------------------------------------------------|
F|-------------------------------------------------------------------------|
C|-------------------------------------------------------------------------|
G|--5-5-5-5--7-7-7-7--3-3-3-3--2-3-2-3--5-5-5-5--7-7-7-7--3-3-3-3--2-3-2-3-|
C|--0-0-0-0--7-7-7-7--3-3-3-3--2-3-2-3--0-0-0-0--7-7-7-7--3-3-3-3--2-3-2-3-|

Verse 1: Guitar 1 00:54 (Distorted & Palm Muted)
D|-------------------------------------------------------------------------|
A|-------------------------------------------------------------------------|
F|-------------------------------------------------------------------------|
C|----------------------------------------5-5-5-5-5-5-5----3-3-3-3-3-3-3---|
G|--5-5-5-5--7-7-7-7--3-3-3-3--2-3-2-3----5-5-5-5-5-5-5----3-3-3-3-3-3-3---|
C|--0-0-0-0--7-7-7-7--3-3-3-3--2-3-2-3----5-5-5-5-5-5-5----3-3-3-3-3-3-3---|

Verse 1: Guitar 1 (Distorted & Palm Muted)
D|-------------------------------------------------------------------------|
A|-------------------------------------------------------------------------|
F|-------------------------------------------------------------------------|
C|-------------------------------------------------------------------------|
G|--5-5-5-5--7-7-7-7--3-3-3-3--2-3-2-3--5-5-5-5--7-7-7-7--3-3-3-3--2-3-2-3-|
C|--0-0-0-0--7-7-7-7--3-3-3-3--2-3-2-3--0-0-0-0--7-7-7-7--3-3-3-3--2-3-2-3-|
                                                                           |
Guitar 2 Fill-in:                                                          |
D|--10101010-10101010-10101010-10101010-10101010-10101010-10101010-101010--|
A|-------------------------------------------------------------------------|
F|-------------------------------------------------------------------------|
C|-------------------------------------------------------------------------|
G|-------------------------------------------------------------------------|
C|-------------------------------------------------------------------------|

Verse 1: Guitar 1                        Pre Chorus 01:02
D|--------------------------------------|----------------------------------|
A|--------------------------------------|----------------------------------|
F|--------------------------------------|----------------------------------|
C|--------------------------------------|--5-5-5-5-5-5-5-5----8---x-x---10-|
G|--5-5-5-5--7-7-7-7--3-3-3-3--2-3-2-3--|--5-5-5-5-5-5-5-5----8---x-x---10-|
C|--0-0-0-0--7-7-7-7--3-3-3-3--2-3-2-3--|--5-5-5-5-5-5-5-5----8---x-x---10-|
                                                                           |
Verse 1: Guitar 2                        Pre Chorus 01:02                  |
D|--10101010-10101010-10101010-10101010-|----------------------------------|
A|--------------------------------------|----------------------------------|
F|--------------------------------------|----------------------------------|
C|--------------------------------------|--5-5-5-5-5-5-5-5----8---x-x---10-|
G|--------------------------------------|--5-5-5-5-5-5-5-5----8---x-x---10-|
C|--------------------------------------|--5-5-5-5-5-5-5-5----8---x-x---10-|

Chorus: Guitar 1 01:08 (Distorted)
D|-------------------------------------------------------------------------|
A|-------------------------------------------------------------------------|
F|-------------------------------------------------------------------------|
C|--0--------8--------5--5--5--5--5--5--5--10-10-10-10-10-10-10----3-------|
G|--0--------8--------5--5--5--5--5--5--5--10-10-10-10-10-10-10----3-------|
C|--0--------8--------5--5--5--5--5--5--5--10-10-10-10-10-10-10----3-------|x2
                                                                           |
Guitar 2 Fill-in:                                                          |
D|-------------------------------------------------------------------------|
A|-----10-------10-----------------10--------------------------------------|
F|--7--------7--------12-------------------10--------9-------------5-------|
C|-------------------------------------------------------------------------|
G|-------------------------------------------------------------------------|
C|-------------------------------------------------------------------------|x2

Verse 2: Guitar 1 01:31 (Distorted & Palm Muted)
D|-------------------------------------------------------------------------|
A|-------------------------------------------------------------------------|
F|-------------------------------------------------------------------------|
C|-------------------------------------------------------------------------|
G|--5-5-5-5--7-7-7-7--3-3-3-3--2-3-2-3--5-5-5-5--7-7-7-7--3-3-3-3--2-3-2-3-|
C|--0-0-0-0--7-7-7-7--3-3-3-3--2-3-2-3--0-0-0-0--7-7-7-7--3-3-3-3--2-3-2-3-|

Verse 2: Guitar 1 (Distorted & Palm Muted)
D|-------------------------------------------------------------------------|
A|-------------------------------------------------------------------------|
F|-------------------------------------------------------------------------|
C|----------------------------------------5-5-5-5-5-5-5----3-3-3-3-3-3-3---|
G|--5-5-5-5--7-7-7-7--3-3-3-3--2-3-2-3----5-5-5-5-5-5-5----3-3-3-3-3-3-3---|
C|--0-0-0-0--7-7-7-7--3-3-3-3--2-3-2-3----5-5-5-5-5-5-5----3-3-3-3-3-3-3---|

Verse 2: Guitar 1 (Distorted & Palm Muted)
D|-------------------------------------------------------------------------|
A|-------------------------------------------------------------------------|
F|-------------------------------------------------------------------------|
C|-------------------------------------------------------------------------|
G|--5-5-5-5--7-7-7-7--3-3-3-3--2-3-2-3--5-5-5-5--7-7-7-7--3-3-3-3--2-3-2-3-|
C|--0-0-0-0--7-7-7-7--3-3-3-3--2-3-2-3--0-0-0-0--7-7-7-7--3-3-3-3--2-3-2-3-|
                                                                           |
Guitar 2 Fill-in:                                                          |
D|--10101010-10101010-10101010-10101010-10101010-10101010-10101010-101010--|
A|-------------------------------------------------------------------------|
F|-------------------------------------------------------------------------|
C|-------------------------------------------------------------------------|
G|-------------------------------------------------------------------------|
C|-------------------------------------------------------------------------|

Verse 1: Guitar 1                        Pre Chorus 01:51
D|--------------------------------------|----------------------------------|
A|--------------------------------------|----------------------------------|
F|--------------------------------------|----------------------------------|
C|--------------------------------------|--5-5-5-5-5-5-5-5----8---x-x---10-|
G|--5-5-5-5--7-7-7-7--3-3-3-3--2-3-2-3--|--5-5-5-5-5-5-5-5----8---x-x---10-|
C|--0-0-0-0--7-7-7-7--3-3-3-3--2-3-2-3--|--5-5-5-5-5-5-5-5----8---x-x---10-|
                                                                           |
Verse 1: Guitar 2                        Pre Chorus 01:51                  |
D|--10101010-10101010-10101010-10101010-|----------------------------------|
A|--------------------------------------|----------------------------------|
F|--------------------------------------|----------------------------------|
C|--------------------------------------|--5-5-5-5-5-5-5-5----8---x-x---10-|
G|--------------------------------------|--5-5-5-5-5-5-5-5----8---x-x---10-|
C|--------------------------------------|--5-5-5-5-5-5-5-5----8---x-x---10-|

Chorus: Guitar 1 01:57 (Distorted)
D|-------------------------------------------------------------------------|
A|-------------------------------------------------------------------------|
F|-------------------------------------------------------------------------|
C|--0--------8--------5--5--5--5--5--5--5--10-10-10-10-10-10-10----3-------|
G|--0--------8--------5--5--5--5--5--5--5--10-10-10-10-10-10-10----3-------|
C|--0--------8--------5--5--5--5--5--5--5--10-10-10-10-10-10-10----3-------|
                                                                           |
Guitar 2 Fill-in:                                                          |
D|-------------------------------------------------------------------------|
A|-----10-------10-----------------10--------------------------------------|
F|--7--------7--------12-------------------10--------9-------------5-------|
C|-------------------------------------------------------------------------|
G|-------------------------------------------------------------------------|
C|-------------------------------------------------------------------------|

Guitar 1 Cont. (Distorted)
D|-------------------------------------------------------------------------|
A|-------------------------------------------------------------------------|
F|-------------------------------------------------------------------------|
C|--0--------8--------5--5--5--5--5--5--5--10-10-10-10-10-10-10------------|
G|--0--------8--------5--5--5--5--5--5--5--10-10-10-10-10-10-10------------|
C|--0--------8--------5--5--5--5--5--5--5--10-10-10-10-10-10-10----2v------|
                                                                   PH      |
Guitar 2 Fill-in:                                                          |
D|-------------------------------------------------------------------------|
A|-----10-------10-----------------10--------------------------------------|
F|--7--------7--------12-------------------10--------9---------------------|
C|-------------------------------------------------------------------------|
G|-------------------------------------------------------------------------|
C|-------------------------------------------------------------------------|

Bridge: Guitars 1 & 2 02:20 (Distorted)
D|-------------------------------------------------------------------------|
A|-------------------------------------------------------------------------|
F|-------------------------------------------------------------------------|
C|--0-0--0--7-7-7p0--3-3--3--2h3-2h3---0-0--0--7-7-7p0--3-3--3--2h3-2h3----|
G|--0-0--0--7-7-7p0--3-3--3--2h3-2h3---0-0--0--7-7-7p0--3-3--3--2h3-2h3----|
C|--0-0--0--7-7-7p0--3-3--3--2h3-2h3---0-0--0--7-7-7p0--3-3--3--2h3-2h3----|

Bridge: Guitars 1 & 2 02:20 (Distorted)
D|-------------------------------------------------------------------------|
A|-------------------------------------------------------------------------|
F|-------------------------------------------------------------------------|
C|--0-0--0--7-7-7p0--3-3--3--2h3-2h3----5--5--5--5--8--8--8--8-------------|
G|--0-0--0--7-7-7p0--3-3--3--2h3-2h3----5--5--5--5--8--8--8--8-------------|
C|--0-0--0--7-7-7p0--3-3--3--2h3-2h3----5--5--5--5--8--8--8--8-------------|
                                        |___ Guitar 1 only ___|
Guitar 1 for solo: 02:32 (Distorted)
D|-------------------------------------------------------------------------|
A|-------------------------------------------------------------------------|
F|-------------------------------------------------------------------------|
C|--------0------------------8---------------------------------------------|
G|--------0------------------8---------------------------------------------|
C|--------0------------------8---------------------------------------------|
                                                                           |
Solo: Guitar 2 02:32 (Distorted)                                           |
D|--15h17h18--18-18-17v----------------------------------------------------|
A|-------------------------15h17h18--15h17p15------------------------------|
F|---------------------------------------------17p15\14b(15)---------------|
C|------------------------------------------------------------14b(15)------|
G|-------------------------------------------------------------------------|
C|-------------------------------------------------------------------------|

Guitar 1
D|-------------------------------------------------------------------------|
A|-------------------------------------------------------------------------|
F|-------------------------------------------------------------------------|
C|--------5--5--5--5--5--5--5---10101010101010-3----------0----------------|
G|--------5--5--5--5--5--5--5---10101010101010-3----------0----------------|
C|--------5--5--5--5--5--5--5---10101010101010-3----------0----------------|
                                                                           |
Guitar 2                                                                   |
D|------------------------------13-12b-12b-10-------15h17h18--18-18-17v----|
A|--------------------------------------------13v--------------------------|
F|--------14-15v-15v-14v----12---------------------------------------------|
C|--12h15------------------------------------------------------------------|
G|-------------------------------------------------------------------------|
C|-------------------------------------------------------------------------|

Guitar 1
D|-------------------------------------------------------------------------|
A|-------------------------------------------------------------------------|
F|-------------------------------------------------------------------------|
C|----8------------------------------------------------5--5--5--5--5--5--5-|
G|----8------------------------------------------------5--5--5--5--5--5--5-|
C|----8------------------------------------------------5--5--5--5--5--5--5-|
                                                                           |
Guitar 2                                                                   |
D|-------------------------------------------------------------------------|
A|--15h17h18--15h17p15-----------------------------------------------------|
F|----------------------17p15\14b(15)------------------12---15v-15v--14v---|
C|-------------------------------------14b(15)---12h15---------------------|
G|-------------------------------------------------------------------------|
C|-------------------------------------------------------------------------|

Guitar 1
D|-------------------------------------------------------------------------|
A|-------------------------------------------------------------------------|
F|-------------------------------------------------------------------------|
C|-----------10-10-10-10-10-10-10--3---0-----------------------------------|
G|-----------10-10-10-10-10-10-10--3---0-----------------------------------|
C|-----------10-10-10-10-10-10-10--3---0-----------------------------------|
                                                                           |
Guitar 2                                                                   |
D|-------------------------------------------------------------------------|
A|-----------13h15-17--18--17--15--13--15----------------------------------|
F|--12h14h15---------------------------------------------------------------|
C|-------------------------------------------------------------------------|
G|-------------------------------------------------------------------------|
C|-------------------------------------------------------------------------|

Chord played clean at 03:06  Pre-chorus: 03:12 (Distorted & Palm Muted)
D|--0-----------------------|----------------------------------------------|
A|--6-----------------------|----------------------------------------------|
F|--9-----------------------|----------------------------------------------|
C|--0-----------------------|--5--5--5--5--5--5--5--5--10--10--10--10------|
G|--0-----------------------|--5--5--5--5--5--5--5--5--10--10--10--10------|
C|--------------------------|--5--5--5--5--5--5--5--5--10--10--10--10--2v--|
                                                                       PH
Chorus/Outro: 03:17 (Distorted)
D|-------------------------------------------------------------------------|
A|-------------------------------------------------------------------------|
F|-------------------------------------------------------------------------|
C|--0--------8--------5--5--5--5--5--5--5--10-10-10-10-10-10-10----3-------|
G|--0--------8--------5--5--5--5--5--5--5--10-10-10-10-10-10-10----3-------|
C|--0--------8--------5--5--5--5--5--5--5--10-10-10-10-10-10-10----3-------|x3
                                                                           |
Guitar 2 Fill-in:                                                          |
D|-------------------------------------------------------------------------|
A|-----10-------10-----------------10--------------------------------------|
F|--7--------7--------12-------------------10--------9-------------5-------|
C|-------------------------------------------------------------------------|
G|-------------------------------------------------------------------------|
C|-------------------------------------------------------------------------|x3

Outro: Guitars 1 & 2 (Distorted)
D|-------------------------------------------------------------------------|
A|-------------------------------------------------------------------------|
F|-------------------------------------------------------------------------|
C|--0-0-0-0--7-7-7-7--3-3-3-3--2h3-2h3-------------------------------------|
G|--0-0-0-0--7-7-7-7--3-3-3-3--2h3-2h3-------------------------------------|
C|--0-0-0-0--7-7-7-7--3-3-3-3--2h3-2h3-------------------------------------|

Finished!

            
            
Suggest correction
Creating personal tab
Creating personal tab
You can edit any tab online and save it as your Personal.

You can edit, replace or remove any tab part or add personal notes – all changes will be seen only by you.

Personal tabs can be accessed anytime from any device, even offline.
Learn more »
comments
print report bad tab
28 comments total. Showing first comments.
+2 reply
RS-GUITARIST 114 Aug 05, 2006 06:23 AM

very well done

0 reply
U B the band 3,023 Aug 05, 2006 10:46 AM

thank you for your comment....but im wondering what rating you would give it so if you can do that it would be cool-PMT

+1 reply
Effylmimer 31 Aug 06, 2006 12:16 PM

Nice job, you were the only one with the friggin solo correct. Do Running away if u have it!

guest
You may want to rate the tab now too:
select rating
Wanna post a correction for this tab? Suggest correction