Oops, an error
Loading. Please wait.
We have an official Never Too Late tab made by UG professional guitarists. Check out the tab »
×
10,003 views 237 this week
no commentswrite comment
1 2 3 4 5
x 5
add to favorites
×
Save as Personal and add changes to this tab that will be seen only by you. Learn more ›
×
You can save this tab as Personal to edit and correct it or add notes. All changes will be seen only by you. Learn more »
launch autoscroll
font size
0
reset
transpose
0
reset
display chords
guitar tuner
backing track
0:00
0:00
edit
Autoscroll
slow
fast
+/-
esc
set tempo
stop
Strumming
There is no strumming pattern for this song yet. and get +5 IQ
My version mixed from several sources. I think this fits the song perfectly,
and theres also tabbed the change in the verse.

Three Days Grace - Never Too Late
75 bpm Drop D
e-|---1-----1-----0-----0---
B-|---3-----3-----1-----1---
G-|---3-----2-----2-----0---
D-|---3-----0-----2-----2---
A-|---1-----------0-----3---
E-|-------------------------
      Bb    Dm    Am    C    

[INTRO + 1ST VERSE (TWO LINES) + OUTRO]

E|--------------------------------|  |-------------------|
B|--------------------------------|  |-------------------|
G|--------------------------------|x3|-------------------|
D|-------10-----------10--8--7--0-|  |-------10-----10---|
A|----8------8-----0--------------|  |----7------7--10---|
D|-8------------0-----------------|  |-7------------10---|


[VERSE]

This world will never be, What I expected

And if I don't belong, Who would have guessed it
E|--------------------------------|  |-------------------|
B|-------13-----------13----------|  |-------13------13--|
G|-----------------------15-14----|x3|---------------12--|
D|----15----15-----12----------15-|  |----14-----14--10--|
A|-13-----------------------------|  |-12----------------|
D|--------------0-----------------|  |-------------------|
I will not leave alone, Everything that I own

To make you feel like, it's not too late 

It's never too late


[CHORUS]

Dm  Bb             Am   C
      Even if I say, It'll be alright
Dm  Bb                    Am     C
      Still I hear you say, You want to end your life
Dm  Bb                    Am     C
      Now and again we try, To just stay alive
Bb  Dm                           Am             C
      Maybe we'll turn it around, 'Cause it's not too late

It's never too late


[VERSE]

E|--------------------------------|  |-------------------|
B|-------13-----------13----------|  |-------13------13--|
G|-----------------------15-14----|x3|---------------12--|
D|----15----15-----12----------15-|  |----14-----14--10--|
A|-13-----------------------------|  |-12----------------|
D|--------------0-----------------|  |-------------------|
No one will ever see, This side reflected

And if there's something wrong, Who would have guessed it

And I have left alone, Everything that I own

To make you feel like, It's not too late

It's never too late


[CHORUS]

Dm  Bb             Am   C
      Even if I say, It'll be alright
Dm  Bb                    Am     C
      Still I hear you say, You want to end your life
Dm  Bb                    Am     C
      Now and again we try, To just stay alive
Bb  Dm                           Am             C
      Maybe we'll turn it around, 'Cause it's not too late

It's never too late


[BRIDGE]

Bb                 Dm    C
The world we knew, Won't come back
Bb                   Dm    C
The time we've lost, Can't get back
Bb               Dm     C         Bb     Am   C
The life we had, Won't be ours again
E|-----------------|
B|-----------------|
G|-----------------| x2
D|-------10-----12-|
A|----8------------|
D|-8---------0-----|
      This world will never be, What I expected
E|-----------------| |----|
B|-----------------| |----|
G|-----------------| |----|
D|-------10-----12-| |-12-|
A|----8------------| |--8-|
D|-8---------0-----| |--8-|
      And if I don't belong ...


[CHORUS]

Dm  Bb             Am   C
      Even if I say, It'll be alright
Dm  Bb                    Am     C
      Still I hear you say, You want to end your life
Dm  Bb                    Am     C
      Now and again we try, To just stay alive
Bb  Dm                           Am             C
      Maybe we'll turn it around, 'Cause it's not too late

It's never too late
Bb  Dm                           Am             C
      Maybe we'll turn it around, 'Cause it's not too late

It's never too late
Bb  Dm      Am             C
                It's not too late, It's never too late

[OUTRO]

            
            
Suggest correction
Creating personal tab
Creating personal tab
You can edit any tab online and save it as your Personal.

You can edit, replace or remove any tab part or add personal notes – all changes will be seen only by you.

Personal tabs can be accessed anytime from any device, even offline.
Learn more »
comments
print report bad tab
guest
You may want to rate the tab now too:
select rating
Wanna post a correction for this tab? Suggest correction