Oops, an error
Loading. Please wait.
We have an official Never Too Late tab made by UG professional guitarists. Check out the tab »
×

Never Too Late tab

version 2
version 2

Whole song

74,163 views 6 this week
10 commentsread comments
1 2 3 4 5
x 14
add to favorites
×
Save as Personal and add changes to this tab that will be seen only by you. Learn more ›
×
You can save this tab as Personal to edit and correct it or add notes. All changes will be seen only by you. Learn more »
launch autoscroll
font size
0
reset
how to read this tab
guitar tuner
backing track
0:00
0:00
edit
Autoscroll
slow
fast
+/-
esc
set tempo
stop
Three Days Grace - "Never Too Late"
Album: One-X

Tabbed by: Sicfreak91

Was kinda hoping this new album was gonna stick to one tuning ... but i guess not

Tuning: Drop D

Intro: (acoustic)
Guitar 1:
|---------------------------------------------------------------|
|-----1--------1--------------1--------1------------------------|
|----------------3-2~--------------------3-2~-------------------|
|---3---3-------------------3---3-------------------------------|
|-1---------------------0h1-------------------------------------|
|---------0~--0-------------------0~--0-------------------------|x1

|---------------------------------------------------------------|
|-------1--------1------------1----1~---------------------------|
|------------------3-2~------------0~---------------------------|
|-----3---3-----------------3---3--2~---------------------------|
|-0h1-------------------0h1--------3~---------------------------|
|-----------0~--0-----------------------------------------------|x1


Verse 1:
Guitar 1:
|---------------------------------------------------------------|
|-----1--------1--------------1--------1------------------------|
|----------------3-2~--------------------3-2~-------------------|
|---3---3-------------------3---3-------------------------------|
|-1---------------------0h1-------------------------------------|
|---------0~--0-------------------0~--0-------------------------|x1

|---------------------------------------------------------------|
|-------1--------1------------1----1~---------------------------|
|------------------3-2~------------0~---------------------------|
|-----3---3-----------------3---3--2~---------------------------|
|-0h1-------------------0h1--------3~---------------------------|
|-----------0~--0-----------------------------------------------|x1

Now gtr. 2 comes in ... 
Guitar 1:
|---------------------------------------------------------------|
|-----1--------1--------------1--------1------------------------|
|----------------3-2~--------------------3-2~-------------------|
|---3---3-------------------3---3-------------------------------|
|-1---------------------0h1-------------------------------------|
|---------0~--0-------------------0~--0-------------------------|
                                                                   x1
Guitar 2:
|---------------------------------------------------------------|
|-----1--------1--------------1--------1------------------------|
|---------2~-----3-2~-------------2~-----3-2~-------------------|
|---3---3-------------------3---3-------------------------------|
|-1---------------------0h1-------------------------------------|
|-------------0-----------------------0-------------------------|
================
Guitar 1:
|---------------------------------------------------------------|
|-------1--------1------------1----1~---------------------------|
|------------------3-2~------------0~---------------------------|
|-----3---3-----------------3---3--2~---------------------------|
|-0h1-------------------0h1--------3~---------------------------|
|-----------0~--0-----------------------------------------------|
                                                                   x1
Guitar 2:
|---------------------------------------------------------------|
|-------1--------1------------1----1~---------------------------|
|-----------2~-----3-2~------------0~---------------------------|
|-----3---3-----------------3---3--2~---------------------------|
|-0h1-------------------0h1--------3~---------------------------|
|---------------0-----------------------------------------------|


Chorus:
|---------------------------------------------------------------|
|---------------------------------------------------------------|
|---------------------------------------------------------------|
|-0~--88888-777-1010101010------888--0~--777-10~----------------|
|-0~--88888-777-1010101010------888--0~--777-10~----------------|
|-0~--88888-777-1010101010-(x3)-888--0~--777-10~-(x1)-----------|


Verse 2: same as verse 1 - with guitar 2 (x2)


Chorus 2:
|---------------------------------------------------------------|
|---------------------------------------------------------------|
|---------------------------------------------------------------|
|-0~--88888-777-1010101010------888--0~--777-1010101010---------|
|-0~--88888-777-1010101010------888--0~--777-1010101010---------|
|-0~--88888-777-1010101010-(x3)-888--0~--777-1010101010-(x1)----|


Bridge:
|---------------------------------------------------------------|
|---------------------------------------------------------------|
|---------------------------------------------------------------|
|-888--888--888-3-33-1010101010-------88888888-77-xx--10~-------|
|-888--888--888-3-33-1010101010-------88888888-77-xx--10~-------|
|-888--888--888-3-33-1010101010-(x3)--88888888-77-xx--10~-(x1)--|

(acoustic)
|---------------------------------------------------------------|
|-----1---3~----------------------------------------------------|
|---------------------------------------------------------------|
|---3---3-------------------------------------------------------|
|-1-------------------------------------------------------------|
|---------------------------------------------------------------|x3


Chorus 3:
|---------------------------------------------------------------|
|---------------------------------------------------------------|
|---------------------------------------------------------------|
|-0~--88888-777-1010101010------888--0~--777-10~----------------|
|-0~--88888-777-1010101010------888--0~--777-10~----------------|
|-0~--88888-777-1010101010-(x3)-888--0~--777-10~-(x3)-----------|


Outro: (acoustic)
Guitar 1:
|---------------------------------------------------------------|
|-----1--------1--------------1--------1------------------------|
|----------------3-2~--------------------3-2~-------------------|
|---3---3-------------------3---3-------------------------------|
|-1---------------------0h1-------------------------------------|
|---------0~--0-------------------0~--0-------------------------|x1

|---------------------------------------------------------------|
|-------1--------1------------1----1~---------------------------|
|------------------3-2~------------0~---------------------------|
|-----3---3-----------------3---3--2~---------------------------|
|-0h1-------------------0h1-------------------------------------|
|-----------0~--0-----------------------------------------------|x1

            
            
Suggest correction
Creating personal tab
Creating personal tab
You can edit any tab online and save it as your Personal.

You can edit, replace or remove any tab part or add personal notes – all changes will be seen only by you.

Personal tabs can be accessed anytime from any device, even offline.
Learn more »
comments
print report bad tab
10 comments total. Showing first comments.
+1 reply
jaames 1,351 Jun 13, 2006 11:58 AM

Yeah, I thought the album would be in Drop C, but about half the songs are in drop D.

+1 reply
RS-GUITARIST 114 Jun 16, 2006 04:02 PM

this song is harder to play but may be more correct

+1 reply
U B the band 3,023 Jul 30, 2006 08:20 AM

i like this tab better 5 stars-PMT

guest
You may want to rate the tab now too:
select rating
Wanna post a correction for this tab? Suggest correction