Oops, an error
Loading. Please wait.

You Dont Get Me High Anymore tab

version 1
version 1

Whole song

  • I learned the song by ear, so it might not be 100% accurate.
2,743 views 27 this week
1 commentread comment
1 2 3 4 5
x 6
add to favorites
×
Save as Personal and add changes to this tab that will be seen only by you. Learn more ›
×
You can save this tab as Personal to edit and correct it or add notes. All changes will be seen only by you. Learn more »
launch autoscroll
font size
0
reset
how to read this tab
guitar tuner
edit
Autoscroll
slow
fast
+/-
esc
set tempo
stop
Author
Difficulty
About this tab version
I learned the song by ear, so it might not be 100% accurate. Was this info helpful? Yes No
Tuning: Drop G [can also be played in Drop C by playing the lower notes after the 12th fret]

The tab is the same as played in this video: youtu.be/uEz8UIfnjQs

[Intro]
A|--------------------------------------------------------------------------------------------|
E|--------------------------------------------------------------------------------------------|
C|--------------------------------------------------------------------------------------------|
G|--12-----10-----14-----8-------8-----7----7/5-5----3-3/8--0---------------------------------|
D|--12-x5--10-x3--14-x3--8-x3----8-x3--7-x2-7/5-5-x3-3-3/8--0-x3------------------------------|
G|--12-----10-----14-----8-------8-----7----7/5-5----3-3/8--0---------------------------------|

[Verse 1]
    I don't like staying at home, when the moon is bleeding red..               
A|--------------------------------------------------------------------------------------------|
E|--------------------------------------------------------------------------------------------|
C|--------------------------------------------------------------------------------------------|
G|--12/0--------------------------------------------8----7----5----5/0------------------------|
D|--12/0--------------------------------------------8-x3-7-x3-5-x2-5/0------------------------|
G|--12/0--------------------------------------------8----7----5----5/0------------------------|
       *                                                             *
Cut it out cut it out, yeah,        everybody's on something here....
A|--------------------------------------------------------------------------------------------|
E|--------------------------------------------------------------------------------------------|
C|--------------------------------------------------------------------------------------------|
G|--12/0--------------------------------------------8----7----5----5/0------------------------|
D|--12/0--------------------------------------------8-x3-7-x3-5-x2-5/0------------------------|
G|--12/0--------------------------------------------8----7----5----5/0------------------------|
       *                                                             *
[Pre-Chorus]
Walk with ... end,     stare with .... abyss,       do you feel like .....
A|----- -------------------------------------------|
E|-------------------------------------------------|
C|-------------------------------------------------|
G|-7-----------10-------14-------------12----------| x2
D|-5-----------8--------12-------------10----------|
G|-5-----------8--------12-------------10----------|
   --------/   ----/    -----------/   ----------/

[Chorus]
A|------------------------------------------------------------------------------------|
E|------------------------------------------------------------------------------------|
C|------------------------------------------------------------------------------------|
G|--12-----10-----14-----8-------8---7---5---3-3/8--0---------------------------------|
D|--12-x2--10-----14-----8-------8---7---5---3-3/8--0---------------------------------| x2
G|--12-----10-----14-----8-------8---7---5---3-3/8--0---------------------------------|

Verse 2 is same as 1

[Pre-Chorus]

Chorus: x3

A different version of Pre-Chorus with this 'lead' played in the background:
A|--------------------------------------------------------------------------------------------|
E|--------8--------8---------8---------8--------8--------8--------8---------------------------|
C|-7-9-10---7-9-10----7-9-10----7-9-10---7-9-10---7-9-10---7-9-10---7-9-10--------------------|
G|--------------------------------------------------------------------------------------------|
D|--------------------------------------------------------------------------------------------|
G|--------------------------------------------------------------------------------------------|

Chorus is a bit different here:
A|--------------------------------------------------------------------------------------|
E|--------------------------------------------------------------------------------------|
C|--------------------------------------------------------------------------------------|
G|--12-----10-----14-----8-----------------------8---7---5---3-3/8--0-------------------|
D|--12-x2--10-----14-----8-----------------------8---7---5---3-3/8--0-------------------| x4
G|--12-----10-----14-----8-----------------------8---7---5---3-3/8--0-------------------|
                         -----------------/                         ----------------/

End



************************************

/ - slide
* - palm mute
-------/ - let ringe

************************************

            
            
Suggest correction
Creating personal tab
Creating personal tab
You can edit any tab online and save it as your Personal.

You can edit, replace or remove any tab part or add personal notes – all changes will be seen only by you.

Personal tabs can be accessed anytime from any device, even offline.
Learn more »
comments
print report bad tab
1 comment total.
0 reply
bradenrrrrrr 10 Aug 17, 2017 06:51 PM

All I have to say is, if they really played this song in Drop G, we can only expect a heavy new album. Maybe, haha.. good tab.

guest
You may want to rate the tab now too:
select rating
Wanna post a correction for this tab? Suggest correction