Oops, an error
Loading. Please wait.

Tsop The Sound Of Philadelphia bass

version 2
version 2

Whole song

Interactive

88 views 1 this week
no commentswrite comment
1 2 3 4 5
3 more votes to show rating
add to favorites
×
Save as Personal and add changes to this tab that will be seen only by you. Learn more ›
×
You can save this tab as Personal to edit and correct it or add notes. All changes will be seen only by you. Learn more »
launch autoscroll
font size
0
reset
guitar tuner
edit
Autoscroll
slow
fast
+/-
esc
set tempo
stop
Author
TSOP The Sound Of Philadelphia
Track recorded by The MFSB Band in 1974 featuring The Three Degrees
Although a number 1 in the USA, it only reached number 22 in the UK
Tab by bass50611. Welcome to my tab of this Seventies Soul Classic.
Not exact especially in the outro but it does fit.
Comments at bass254@btinternet.com 

Intro:
G|-------------------------------------------------3-4-|
D|----------------------------------------5--5--5-5----|
A|-3---3-3--2--0---0--0---0----------------------------|
E|---------------------------3---3-3--0-1--------------|

G|---------------------------------------------------|
D|---------------------------------------------------|
A|-3---3-3--2--0---0--0---0--------------------------|
E|---------------------------3---3-3--0-1-3---3-3--3-|

G|-------------------------------------------------3-4-|
D|----------------------------------------5--5--5-5----|
A|-3---3-3--2--0---0--0---0----------------------------|
E|---------------------------3---3-3--0-1--------------|

G|---------------------------------------------------|
D|----------------------------------------5--5--5--5-|
A|-3---3-3--2--0---0--0---0--------------------------|
E|---------------------------3---3-3--0-1------------|

Verse:                                     (Play This x3)
G|------------------------------------------------------|
D|------------------------------------------------------|
A|-3--1-----1----3--1-----1----3--1-----1----3--1-----1-|
E|-------3-------------3-------------3-------------3----|

Chorus:
G|----------------------------------------------------|
D|-1---1----1-2-3--3-4-5--5----1------1---------------|
A|------1------------------------3--1-----------------|
E|--------------------------------------0-1--1-2-3--3-|

Bridge:
G|-------------------------------------------------3-4-|
D|----------------------------------------5--5--5-5----|
A|-3--0-----2--0---0--0---0----------------------------|
E|-------3-------------------3---3-3--0-1--------------|

G|---------------------------------------------------|
D|---------------------------------------------------|
A|-3---3-3--2--0---0--0---0--------------------------|
E|---------------------------3---3-3--0-1-3---3-3--3-|

Verse:                                     (Play This x3)
G|------------------------------------------------------|
D|------------------------------------------------------|
A|-3--1-----1----3--1-----1----3--1-----1----3--1-----1-|
E|-------3-------------3-------------3-------------3----|

Chorus:
G|----------------------------------------------------|
D|-1--1--1--1-2-3--3-4-5--5----1------1---------------|
A|-------------------------------3--1-----------------|
E|--------------------------------------0-1--1-2-3--3-|

Verse:                                     (Play This x5)
G|------------------------------------------------------|
D|------------------------------------------------------|
A|-3--1-----1----3--1-----1----3--1-----1----3--1-----1-|
E|-------3-------------3-------------3-------------3----|

Outro: (With Vocals From The Three Degrees)
G|------------------------------------------------------|
D|------------------------------------------------------|
A|-3--1-----1----3--1-----1----3--1-----1----3--1-----1-|
E|-------3-------------3-------------3-------------3----|

G|------------------------------------------------------------|
D|---------------------1-3---------------------1-3------------|
A|-3--1-----1-------1------3--1-----1-------1------3--1-----1-|
E|-------3-----1--3---------------3----1--3--------------3----|

                                                  (Song Fades Out)
G|---------------------------------------------------------------|
D|-----------------------------------1-3---------------------1-3-|
A|-3--1-----1----3--1-----1-------1------3--1-----1-------1------|
E|-------3-------------3-----1--3--------------3-----1--3--------|


            
            
Suggest correction
Creating personal tab
Creating personal tab
You can edit any tab online and save it as your Personal.

You can edit, replace or remove any tab part or add personal notes – all changes will be seen only by you.

Personal tabs can be accessed anytime from any device, even offline.
Learn more »
Give kudos to tab author, rate the tab!
1 2 3 4 5
comments
print report bad tab
guest
You may want to rate the tab now too:
select rating
Wanna post a correction for this tab? Suggest correction