Oops, an error
Loading. Please wait.

Come All You Weary tab

version 3
version 3

Whole song

Interactive

by Thrice
45,115 views 27 this week
5 commentsread comments
1 2 3 4 5
x 8
add to favorites
×
Save as Personal and add changes to this tab that will be seen only by you. Learn more ›
×
You can save this tab as Personal to edit and correct it or add notes. All changes will be seen only by you. Learn more »
launch autoscroll
font size
0
reset
how to read this tab
guitar tuner
edit
Autoscroll
slow
fast
+/-
esc
set tempo
stop
Drop D tuning

[Intro]
Not To sure about the rhythm but im pretty sure these are the correct notes. The rhythm 
changes as the song progresses so just mess w/these chords until directed otherwise.

[Acoustic]
E|--------------------------------------------------------------------|
B|--------------------------------------------------------------------|
G|--------------------------------------------------------------------|
D|----0------0--0-0---3------3--3-3----2------2--2-2/5-----5-5-5------|
A|----0------0--0-0---5------5--5-5----3------3--3-3/7-----7-7-7------|
D|----0------0--0-0---0------0--0-0----0------0--0-0-0-----0-0-0------|

[Electric]
(1st Part)
E|--------------------------------------------------------|
B|--------------------------------------------------------|
G|-----5---5---5---5h7------------------------------------|
D|-5/7---7---7---7------5~---3---5/7/5--3-----------------|
A|------------------------------------------5~------------|
D|--------------------------------------------------------|

(2nd Part)
E|--------------------------------------------------------------|
B|--------------------------------------------------------------|
G|-----5---5---5---5h7--5~---5-----------5----------------------|
D|-5/7---7---7---7-------------7-5---5h7---7-5---5-7------------|
A|---------------------------------8-----------8-----8--5~------|
D|--------------------------------------------------------------|

[Verse 1] 
(jst use the chords above & you'll figure it out):
"Come All You Weary with your heavy loads
Lay down your burdens find rest for your soul
Cause my yoke is easy and ny burden is kind
I'll take yours apon me you can take mine"

[Electric]
(1st Part)
E|--------------------------------------------------------|
B|--------------------------------------------------------|
G|-----5---5---5---5h7------------------------------------|
D|-5/7---7---7---7------5~---3---5/7/5--3-----------------|
A|------------------------------------------5~------------|
D|--------------------------------------------------------|

(2nd Part)
E|--------------------------------------------------------------|
B|--------------------------------------------------------------|
G|-----5---5---5---5h7--5~---5-----------5----------------------|
D|-5/7---7---7---7-------------7-5---5h7---7-5---5-7------------|
A|---------------------------------8-----------8-----8--5~------|
D|--------------------------------------------------------------|

[Verse 2]
"Come all you weary move through the earth
You've been spurned at fine restaurants & kicked out of church
Got a couple of loaves sit down at my feet
Lend me your ears and break bread with me"

E|-10~-------------------------------------------------------------------|
B|-10~---------------3---3-------3---3-------3---3-----------------------|
G|-----------------5---5---5---5---5---5---5---5---5----/7--10--7~-------|
D|---------------7-----------7-----------7-----------7-------------------|
A|-----------------------------------------------------------------------|
D|-----------------------------------------------------------------------|

E|-------------------------------------------10~-------|
B|-------------------------------------------10~-------|
G|----------------5----5-7--5---5----------------------|
D|-7--5~------5h7----7--------7---7--------------------|
A|----------8-----------------------8---5--------------|
D|-----------------------------------------------------|

[Chorus]
E|---------------------------------------------------------|
B|---------------------------------------------------------|
G|---------------------------------------------------------|
D|--5--------5----5-----0-----0--0----0--0-----0-0-0-------|
A|--5--------5----5-----0-----0--0----0--0-----0-0-0-------|
D|--5--------5----5-----0-----0--0----0--0-----0-0-0-------|
   "Come    all   you  weary

E|------------------------------------------------------------------|
B|------------------------------------------------------------------|
G|------------------------------------------------------------------|
D|--5-------5------5----3---3--3------2---2-----2----2------0-------|
A|--5-------5------5----3---3--3------2---2-----2----2------0-------|
D|--5-------5------5----3---3--3------2---2-----2----2------0-------|
    Come   gather  round  near  me   find rest  for  your  soul"

[Verse 3]
"Come all you weary you cripplrd you lame
I'll help you along you can lay down your cranes
We've got a long way to go but we'll travel as friends
The lights growing bright further up further in"

E|-----------------------------------------------------------------|
B|-----------------------------------------------------------------|
G|-----------------------------------------------------------------|
D|--0-----3--3---3---3---3------3----2---2-2-2---5-----5-5-5-------|
A|--0-----0----0-----5------3h5------3---3-3-3---7-----7-7-7-------|
D|--0-----0--------------------------0-----------------------------|

[Chorus]
E|---------------------------------------------------------|
B|---------------------------------------------------------|
G|---------------------------------------------------------|
D|--5--------5----5-----0-----0--0----0--0-----0-0-0-------|
A|--5--------5----5-----0-----0--0----0--0-----0-0-0-------|
D|--5--------5----5-----0-----0--0----0--0-----0-0-0-------|
   "Come    all   you  weary

E|------------------------------------------------------------------|
B|------------------------------------------------------------------|
G|------------------------------------------------------------------|
D|--5-------5------5----3---3--3------2---2-----2----2------0-------|
A|--5-------5------5----3---3--3------2---2-----2----2------0-------|
D|--5-------5------5----3---3--3------2---2-----2----2------0-------|
    Come   gather  round  near  me   find rest  for  your  soul"

[Post-Chorus]
E|-----------12-----15---15---------10--------------12-----15---15-------|
B|----10-----10-----13---13---------10-------10-----10-----13---13-------|
G|-12-------------------------------------12-----------------------------|
D|-------12--------------------------------------12----------------------|
A|-----------------------------------------------------------------------|
D|-----------------------------------------------------------------------|

[Chorus]
E|---------------------------------------------------------|
B|---------------------------------------------------------|
G|---------------------------------------------------------|
D|--5--------5----5-----0-----0--0----0--0-----0-0-0-------|
A|--5--------5----5-----0-----0--0----0--0-----0-0-0-------|
D|--5--------5----5-----0-----0--0----0--0-----0-0-0-------|
   "Come    all   you  weary

E|------------------------------------------------------------------|
B|------------------------------------------------------------------|
G|------------------------------------------------------------------|
D|--5-------5------5----3---3--3------2---2-----2----2------0-------|
A|--5-------5------5----3---3--3------2---2-----2----2------0-------|
D|--5-------5------5----3---3--3------2---2-----2----2------0-------|
    Come   gather  round  near  me   find rest  for  your  soul"

[Outro]
E|------------------------------------------------------------------------|
B|--10--6----8--5----6--3----5-6-----10--6----8--5----6--3----5-6---------|
G|-------------------------------5--------------------------------5-/6~---|
D|------------------------------------------------------------------------|
A|------------------------------------------------------------------------|
D|------------------------------------------------------------------------|



************************************

| /  Slide up
| h  Hammer-on
| ~  Vibrato

************************************

            
            
Suggest correction
Creating personal tab
Creating personal tab
You can edit any tab online and save it as your Personal.

You can edit, replace or remove any tab part or add personal notes – all changes will be seen only by you.

Personal tabs can be accessed anytime from any device, even offline.
Learn more »
comments
print report bad tab
5 comments total. Showing first comments.
0 reply
-tempest- 82 Apr 03, 2009 06:08 PM

the song is played a full step down. aside from that the tab is good even though the tuning is wrong.

0 reply
~Get Ridiculous 37 Apr 27, 2009 08:44 PM

the last note (6) should be a 7

+1 reply
jdv1 10 Aug 29, 2009 11:08 PM

lead guitar should be:

e|---------------------------------------------------------------------------------------------------|
b|----3----3---3-3--h5---------------------------3-----3--3-3--h5--3-------------3-------------------|
g|-/4----4--------------2-----2/4/2----------/4-----4------------------4p2h---2h4---4p2-------------------------|
d|-------------------------5--------5--2-----------------------------------4------------4--------------|
a|---------------------------------------------------------------------------------------------------|
d|---------------------------------------------------------------------------------------------------|

guest
You may want to rate the tab now too:
select rating
Wanna post a correction for this tab? Suggest correction