Oops, an error
Loading. Please wait.

Come All You Weary tab

version 5
version 5

Whole song

Interactive

by Thrice
32,800 views 63 this week
6 commentsread comments
1 2 3 4 5
x 11
add to favorites
×
Save as Personal and add changes to this tab that will be seen only by you. Learn more ›
×
You can save this tab as Personal to edit and correct it or add notes. All changes will be seen only by you. Learn more »
launch autoscroll
font size
0
reset
how to read this tab
guitar tuner
edit
Autoscroll
slow
fast
+/-
esc
set tempo
stop
**UPDATED VERSION

**I had a minor mistake on my previous tab because the fretting was 2 frets off 
but here it is corrected.

okay i watched many a thrice video to get the EXACT fretting of this song.  it's not 
complete but ive been playing thrice for a long time so i am used to teppei's movements and style.

Chords to know
---------------
   Gm, Dm, B, B+2 (since i can't manage to figure out what the real name is)
D|--0---0---0---0----|
A|--1---1---1---3----|
F|--2---0---0---0----|
C|--2---2---2---4----|
G|--0---2---3---5----|
D|--0---0---0---0----|

D tuning

[Intro]
Dustin:
D|------------------------------------------------------------------|
A|------------------------------------------------------------------|
F|------------------------------------------------------------------|
C|--2----2--2-2-----5----5--5-5-----4----4--4-4-----7----7--7-7-----|  X4
G|--2----2--2-2-----7----7--7-7-----5----5--5-5-----9----9--9-9-----|
D|--0----0--0-0-----0----0--0-0-----0----0--0-0-----0----0--0-0-----|

Teipei:
(on third repeat)
D|-----------------------------------------------------|
A|------3----3-3---3/5---------------------------------|
F|--2/4---4------------2~-----0-2/4/2-0----------------|
C|---------------------------------------2-------------|
G|-----------------------------------------------------|
D|-----------------------------------------------------|

D|-----------------------------------------------------|
A|------3----3-3---3/5-3~--------3---------------------|
F|--2/4---4-----------------2h4----4p2p0---------------|
C|----------------------------------------0h2h5---2~---|
G|-----------------------------------------------------|
D|-----------------------------------------------------|

[Verse 1]
Dustin:
D|------------------------------------------------------------------|
A|------------------------------------------------------------------|
F|------------------------------------------------------------------|
C|--2----2--2-2-----5----5--5-5-----4----4--4-4-----7----7--7-7-----|  X2
G|--2----2--2-2-----7----7--7-7-----5----5--5-5-----9----9--9-9-----|
D|--0----0--0-0-----0----0--0-0-----0----0--0-0-----0----0--0-0-----|

D|------------------------------------------------------------------|
A|------------------------------------------------------------------|
F|------------------------------------------------------------------|
C|--2----2--2-2-----5----5--5-5-----4----4--4-4-----7----7--7-7-----|  
G|--2----2--2-2-----7----7--7-7-----5----5--5-5-----9----9--9-9-----|
D|--0----0--0-0-----0----0--0-0-----0----0--0-0-----0----0--0-0-----|

D|------------------------------------------------------------------|
A|------------------------------------------------------------------|
F|------------------------------------------------------------------|
C|--2----2--2-2-----5----5--5-5-----4----4--4-4-----2----2--2-2-----|
G|--2----2--2-2-----7----7--7-7-----5----5--5-5-----2----2--2-2-----|
D|--0----0--0-0-----0----0--0-0-----0----0--0-0-----0----0--0-0-----|

[Interlude]
Dustin:
D|------------------------------------------------------------------|
A|------------------------------------------------------------------|
F|------------------------------------------------------------------|
C|--2----2--2-2-----5----5--5-5-----4----4--4-4-----7----7--7-7-----|  X2
G|--2----2--2-2-----7----7--7-7-----5----5--5-5-----9----9--9-9-----|
D|--0----0--0-0-----0----0--0-0-----0----0--0-0-----0----0--0-0-----|

Teipei:
D|-----------------------------------------------------|
A|------3----3-3---3/5---------------------------------|
F|--2/4---4------4------2~-----0-2/4/2-0---------------|
C|---------------------------------------2-------------|
G|-----------------------------------------------------|
D|-----------------------------------------------------|

D|------------------------------------------------------|
A|------3----3-3---3/5-3~------------3------------------|
F|--2/4---4------4--------4p2p0--2h4---4p2p0------------|
C|-------------------------------------------0h2h5---2~-|
G|------------------------------------------------------|
D|------------------------------------------------------|

[Verse 2]
D|------------------------------------------------------------------|
A|------------------------------------------------------------------|
F|------------------------------------------------------------------|
C|--2----2--2-2-----5----5--5-5-----4----4--4-4-----7----7--7-7-----| 
G|--2----2--2-2-----7----7--7-7-----5----5--5-5-----9----9--9-9-----|
D|--0----0--0-0-----0----0--0-0-----0----0--0-0-----0----0--0-0-----|

Teipei:
D|------------------(12)---------------------------------------3--|
A|------------------(12)-----------------------------------2p4----|
F|------------------(12)------------------------------------------|
C|----------------------------------------------------------------|
G|----------------------------------------------------------------|
D|----------------------------------------------------------------|

Dustin:
D|------------------------------------------------------------------|
A|------------------------------------------------------------------|
F|------------------------------------------------------------------|
C|--2----2--2-2-----5----5--5-5-----4----4--4-4-----7----7--7-7-----|
G|--2----2--2-2-----7----7--7-7-----5----5--5-5-----9----9--9-9-----|
D|--0----0--0-0-----0----0--0-0-----0----0--0-0-----0----0--0-0-----|

Teipei (something to this effect):
-0---------0---------0---------0---------------------------------------|
-----3---3-----3---3-----3---3------3----------------------------------|
-------0---------0---------0----------0------------7/9-9-9/12-12/14----|
-----------------------------------------------------------------------|
-----------------------------------------------------------------------|

Dustin:
D|------------------------------------------------------------------|
A|------------------------------------------------------------------|
F|------------------------------------------------------------------|
C|--2----2--2-2-----5----5--5-5-----4----4--4-4-----7----7--7-7-----| 
G|--2----2--2-2-----7----7--7-7-----5----5--5-5-----9----9--9-9-----|
D|--0----0--0-0-----0----0--0-0-----0----0--0-0-----0----0--0-0-----|

Teipei:
D|---------------------------------------------------------------------|
A|---------------------------------------------------------------------|
F|---------------------------------------------------------------------|
C|-14~-----------------9/12---12---------------------12--12--12-12/14--|
G|--------------------------14--12h14----14121414--14--14--------------|
D|---------------------------------------------------------------------|

Dustin:
D|------------------------------------------------------------------|
A|------------------------------------------------------------------|
F|------------------------------------------------------------------|
C|--2----2--2-2-----5----5--5-5-----4----4--4-4-----2----2--2-2-----| 
G|--2----2--2-2-----7----7--7-7-----5----5--5-5-----2----2--2-2-----|
D|--0----0--0-0-----0----0--0-0-----0----0--0-0-----0----0--0-0-----|

Teipei:
D|-----------------(12)----------------|
A|-----------------(12)----------------|
F|-----------------(12)------------(7)-|
C|-14~-----------------------------(7)-|
G|---------------------------------(7)-|
D|-------------------------------------|

[Chorus]
Gm        Dm   B
Come, all you weary
Gm          Dm    B
Come gather round near me
B +2
And find rest for your soul

[Interlude]
[VERSE 3] (Same as VERSE 2 excluding a few background notes of Teipei)

[MODIFIED CHORUS]
Gm        Dm   B
Come, all you weary
Gm          Dm    B
Come gather round near me
Gm        Dm   B
Come, all you weary
Gm          Dm    B
Come gather round near me
B +2
And find rest for your soul

[Outro]
Teipei:
D|---------------------------------------------|
A|---12----------------------------------------|
F|-------12-14--11--12----11-------------------|
C|---------------------14-----12h14------------|
G|---------------------------------------------|
D|---------------------------------------------|

************************************

| /    Slide up
| ~    Vibrato
| h    Hammer-on
| p    Pull-off
| (n)  Ghost note

************************************

            
            
Suggest correction
Creating personal tab
Creating personal tab
You can edit any tab online and save it as your Personal.

You can edit, replace or remove any tab part or add personal notes – all changes will be seen only by you.

Personal tabs can be accessed anytime from any device, even offline.
Learn more »
comments
print report bad tab
6 comments total. Showing first comments.
0 reply
Tomozaurus 230 Oct 12, 2008 11:43 PM

According to Guitar Pro that B+2 chord is a Dm9 chord.

0 reply
KeepSingingNow 50 Nov 13, 2008 05:55 PM

hey ! thanks a bunch. im good at hearing and playing but not so much at names haha

0 reply
Wantaansoup22 73 May 24, 2010 07:30 PM

By any chance do you know what effects teppei is using (if any)?

guest
You may want to rate the tab now too:
select rating
Wanna post a correction for this tab? Suggest correction