Oops, an error
Loading. Please wait.

Deadbolt bass

version 3
version 3

Whole song

Interactive

by Thrice
2,075 views 6 this week
no commentswrite comment
1 2 3 4 5
2 more votes to show rating
add to favorites
×
Save as Personal and add changes to this tab that will be seen only by you. Learn more ›
×
You can save this tab as Personal to edit and correct it or add notes. All changes will be seen only by you. Learn more »
launch autoscroll
font size
0
reset
guitar tuner
backing track
0:00
0:00
edit
Autoscroll
slow
fast
+/-
esc
set tempo
stop
Author
Difficulty
This is my first time doing a tab so hopefully i'll do good.I've seen alot of tabs for 
song.and so far they were all wrong,so i hope and pray i did this song right.I'm pretty 
the bass player is using a 5-string bass but i'm not entirely sure,so i'll do my
best to tab it right.

        Symbols: > - strum alot on the sting
                 x - how many times to play note
                 s - sustain note


                               [Intro]

G|--------------------------------------------------------------------|
D|--------------------------------------------------------------------|
A|-4>---------0>---------2>---------4>----------0>----------2>--------|
E|--------------------------------------------------------------------|


                               [Verse]

G|---------------------------------------------------------------------|
D|------------2-1-0(x 4)------------------2-1-0(X 4)-------------------|
A|---------------------------------------------------------------------|
E|2>----------------------------2>-------------------------------------|             
devils awaken from deja'vu dreams....

G|---------------------------------------------------------------------|
D|---------------------------------------------------------------------|
A|--------------------------4>-----------------------------------------|
E|-5>-------2>-------4>-------------5>----------2>------------4>-------|

            I'm running red lights asleep at the wheel...

G|---------------------------------------------------------------------|
D|---------------------------------------------------------------------|
A|4-4----2-2----0-0--0-0-----------4-4----2-2----0-0--0-0--------------|
E|-----------------------2-2--2-2---------------------------2-2--2-2---|

            I just close my eyes,and i'm already there...


                             [Chorus]
G|---------------------------------------------------------------------|
D|---------------------------------------------------------------------|
A|-44444444--222--000000000000-----------4(X 8)-222-0(x 12)------------|
E|-------------------------------22222222----------------22222222------|

                       And she calls from the tower...


G|----------------------------------------------------------------------|
D|----------------------------------------------------------------------|
A|----------------------------------------------------------------------|
E|-2>--------------5>--------------4>-------------2>------------4>------|

               And i'm almost sure that i've been here before...


G|-----------------------------------------|
D|-----------------------------------------|    Do this part
A|-4444---444------------------------------|      4 times
E|----------------0000-----5555-555----222-|

                       Right now!My true love!....


G|------------------------------------|
D|------------------------------------|          Do this part
A|------------------------------------|             4 times
E|6s----------9s-----------1s---------|

                         What have I done....?

       Well,there ya have it.hope it sounded good to you and hopefully those are the 
tabs to this song.I missed a few parts but i'm working on them,so i'll try and update this 
in a little bit.If you have any comments,please email me at:
                                Pattyd@hotmail.com       Thanks  :)

            
            
Suggest correction
Creating personal tab
Creating personal tab
You can edit any tab online and save it as your Personal.

You can edit, replace or remove any tab part or add personal notes – all changes will be seen only by you.

Personal tabs can be accessed anytime from any device, even offline.
Learn more »
Give kudos to tab author, rate the tab!
1 2 3 4 5
comments
print report bad tab
guest
You may want to rate the tab now too:
select rating
Wanna post a correction for this tab? Suggest correction